Home » R » Russian Circles »

Russian Circles - Xavii Tabs

Artists:  A B C D E F G H I J K L M N O P Q R S T U V W X Y Z # 

Xavii Tabs

(ver. 1) Click to play this song!
Russian Circles
-------------------------------------------------------------------------------
-------------------------------------------------------------------------------



Tuning: DADGAD

0:00
|---------------------------------------------|
|-----5~--------1~----------------------------|
|---3---------0-----------7-------------------|
|-5---------1-----------8---8-----10~----8--7-|
|---------------------------------------------|
|-5---------1---------8-----------10~----8--7-|

1:18
|-------------1-0~---------------------------------|
|-----5~-------------------------------0-----------|
|---3---------------------7----------8---8---------|
|-5---------1-----------8---8-----10--------13--15-|
|--------------------------------------------------|
|-5---------1---------8-----------10--------13--15-|

1:32
|------------15----15----------7---10---7---|
|---------------13----13-----8---8----8---8-|
|----0--------------------------------------|
|------12-----------------------------------|
|-13------13---------------8----------------|
|-------------------------------------------|

|---------------8---------0---|-----0---|
|---------6---6---6-----5---5-|---3-----|
|---7h8p7---------------------|-------2-|
|-----------------------------|---------|
|-6---------6---------5-------|-3-------|
|-----------------------------|---------|

Verse is variation on same chords.


Outro
3:20
|-----------------------------|-----|
|-----------------------------|-----|
|---------5-5-----------------|-----|
|-8-8-----x-x-----8-8-----7-7-|-8-8-|
|-5-5-5-5-5-5-5-5-5-5-5-5-5-5-|-5-5-|
|-5-5-5-5-5-5-5-5-5-5-5-5-5-5-|-5-5-|
            
Submit corrections

↑ Back to top | Tablatures and chords for acoustic guitar and electric guitar, ukulele, drums are parodies/interpretations of the original songs. You may use it for private study, scholarship, research or language learning purposes only