Home » R » Russian Circles »

Russian Circles - Micah Tabs

Artists:  A B C D E F G H I J K L M N O P Q R S T U V W X Y Z # 

Micah Tabs

(ver. 1) Click to play this song!
Russian Circles
-------------------------------------------------------------------------------
                             Russian Circles - Micah
-------------------------------------------------------------------------------

Tuning: Standard

Intro:
e|-------------------------------------------10--------|
B|--------------------------------1---1----6----6------|
G|---7---5------7-5-------------3---2----7-------------|
D|-----7------8-----------5----------------------------|
A|-5-------------------5-----5-------------------------|
E|----------6-------3----------------------------------|


e|-----------------------------------------------------|
B|-----------------------------------------------------|
G|------10--------7---------7--------------------------|
D|---------7----8---8----10---10-----------------------|
A|----8------------------------------------------------|
E|-10---------6--------8-------------------------------|

Interlude:
e|-12h13-12----------------------------------------------|
B|----------13-------------------------------------------|
G|-------------14h15-15-15-14p12-12-12-------------------|
D|-------------------------------------15-15-14-14-------|
A|-------------------------------------------------------|
E|-------------------------------------------------------|

e|-------------------------------------------------------|
B|-------------------------------------------------------|
G|-------------------------------------12----12----------|
D|-------------14-14-14-14-15-14-15-14----14----14-------|
A|-15h17-17-17-------------------------------------------|
E|-------------------------------------------------------|

e|-12h13-12----------------------------------------------|
B|----------13-------------------------------------------|
G|-------------14h15-15-15-14p12-12-12/17----------------|
D|-------------------------------------------------------|
A|-------------------------------------------------------|
E|-------------------------------------------------------|

e|-17----17----15----15----13----13----12-12-------------|
B|----13----13----13----13----13----13-------13-13-------|
G|-------------------------------------------------------|
D|-------------------------------------------------------|
A|-------------------------------------------------------|
E|-------------------------------------------------------|



| /  slide up
| \  slide down
| h  hammer-on
| p  pull-off
| ~  vibrato
| +  harmonic
| x  Mute note
===============================================================================
            
Submit corrections

↑ Back to top | Tablatures and chords for acoustic guitar and electric guitar, ukulele, drums are parodies/interpretations of the original songs. You may use it for private study, scholarship, research or language learning purposes only