Home » R » Rush »

Rush - Working Man Tabs

Artists:  A B C D E F G H I J K L M N O P Q R S T U V W X Y Z # 

Working Man Tabs

(ver. 1) Click to play this song!
Rush
"Working Man" by Rush
-------------------------------------------------

/   Slide up
\   Slide down
(0) Ghost/grace note

Intro/verse: (repeat several times)
-----------------------------------------------
-----------------------------------------------
-----------------------------------------------
-(2)-2--(2)-2----------(2)-2--(2)-2------------
-(2)-2--(2)-2----5-----(2)-2--(2)-2----3--3h5\- (5)-5~-5>(7)-7~-7-8~-8-7-8-7-5-7-5---5------_------------------
---------------------------------------7---7-6-7-6-4--------_------
------------------------------------------------------5-7-5-7-5----

------------------------------------------_---------8-10!-10!-10!---
------------_---------_----------------7-9-7---7-9-----------------
--5-7!-5-7-7-5---5-7-7-5-----_--5-7>9-------9---------------------
---------------7----------7--5-7-----------------------------------

--10-----10----_-------------------------------_--------------
------10!----10!-8--8---8-10!-8---8--12!--10!-10!-8---10-8-----
------------------9--9---------9-------------------9------7-9-

-------------------_----------_-------_-----------------------------
---_--7-9!---9!-9!-9-7---7-9!-9!-7---9-9-7--7-----------_----_------
--7-9-----------------9----------9-------9---9-8-7-5-7-5--7-5-----
----------------------------------------------------------7----7-5~~

I couldn't transcribe the rest of the solos to my satisfaction, so I left them out.  The only other part of the song I know is the following. . .

-------_----------_-------------------------_---------_------------
--7-7-7-5---7-7-7-5---7-5---5~~--7-5-7-7-7-5---7-7-7-5--7-5---5~
----------7----------7-----7-------------------7---------5-----7---

----------_----------_---------3~----------_----------_---------3~
-----5-5-5-3---5-5-5-3--5-3------5-3-5-5-5-3---5-5-5-3--5-3-----
-------------4---------4-----4-----------------4---------4----4----
-7-5----------------------------------------------------------------

                         _
--0-3-5-5!-5!-5-3---5-3-------3-----------
------------------5-----5-3-5--5-3-0-3-5!
------------------------------------------
------------------------------------------
------------------------------------------
------------------------------------------

-----------------------------------------
----------------------------------------
-----------------------------------------
-----------------------------------------
--7-7-7-7-5---5~--5--5------------------
-------------7----------7-5-3~--3-5-3-0-

Key-
~ vibrato
!  bend
_  hammer on or pull off
 slide up

That's it. . .
            
Submit corrections

↑ Back to top | Tablatures and chords for acoustic guitar and electric guitar, ukulele, drums are parodies/interpretations of the original songs. You may use it for private study, scholarship, research or language learning purposes only