Home » R » Rush »

Rush - Something For Nothing Tabs

Artists:  A B C D E F G H I J K L M N O P Q R S T U V W X Y Z # 

Something For Nothing Tabs

(ver. 1) Click to play this song!
Rush
PROPS GO TO: Sevie Teague

Am          G    D    E           G   Am     
[---------0-----3---2-----------0-----3---0-----]
[-----------1-----3---3-----------0-----3---1---]
[-------2-----2---------2-----1-----1---------2-]
[-----2---------------------2-------------------]
[---0---------------------2---------------------]
[-----------------------------------------------]

    Am    G D  A    D          Am    G Am A    D
[---------3-2-------2---2------------3-0-------2---2------]
[---1-111-3-3-------3---3------------3-1-------3---3------]
[---2-222-0-2--22-2-2-2-2-22-2-1-111-0-2--22-2-2-2-2-22-2-]
[---2-222-0-0--22-2-0-2-0-22-2-2-222-0-2--22-2-0-2-0-22-2-]
[---0-000-2----00-0---0---00-0-2-222-2-0--00-0---0---00-0-]
[---------3--------------------------3--------------------]
    (soft)     (harder)        (soft)     (harder)

    A G D              A G D
[------------------------------------]
[---5-3-7--------------5-3-7---------]
[---6-4-7--------------6-4-7---------]
[---7-5-7--------------7-5-7---------]
[---7-5-5-7-5-3-5-0----7-5-5-7-5-3-0-]
[---5-3-5-----------5--5-3-5---------]

    Am G D  E  G Am
[---0=-3-2=----3-0=-]
[---1=-3-3=-0=-3-1=-]
[---2=-0-2=-1=-0-2=-](repeat as needed)
[---2=-0-0=-2=-0-2=-]
[---0=-2----2=-2-0=-]
[------3----0=-3----]

                                                (reapeat this part)
[---0-00-33-22-----3-0-------2---2----------3-0-------2---2-----]
[---1-11-33-33-----3-1-------3---3----------3-1-------3---3-----]
[---2-22-00-22--11-0-2--22-2-2-2-2-2--1-111-0-2--22-2-2-2-2-22--]
[---2-22-00-00--22-0-2--22-2-0-2-0-2--2-222-0-2--22-2-0-2-0-22--]
[---0-00-22-----22-2-0--00-0---0---0--2-222-2-0--00-0---0---00--]
[--------33-----00-3------------------0-000-3-------------------]
                        (harder)                 (harder)

= Let Ring

This is the firt song I ever wrote on the computer.
Put it together and its correct thought.
            
Submit corrections

↑ Back to top | Tablatures and chords for acoustic guitar and electric guitar, ukulele, drums are parodies/interpretations of the original songs. You may use it for private study, scholarship, research or language learning purposes only