Home » R » Rose Royce »

Rose Royce - Car Wash Bass

Artists:  A B C D E F G H I J K L M N O P Q R S T U V W X Y Z # 

Car Wash Bass

(ver. 3) Click to play this song!
Rose Royce

 Intro
  Q=118
 4/4
  Gtr II (Handclaps arr. for Bass)
  Q  Q  Q  Q    Q  E. S E E Q    Q  Q  Q  Q    Q  E. S E E Q    Q  Q  Q  Q
|-------------|----------------|-------------|----------------|--------------|
|-------------|----------------|-------------|----------------|--------------|
|----x-----x--|----x--x-x-x-x--|----x-----x--|----x--x-x-x-x--|----x-----x---|
|-------------|----------------|-------------|----------------|--------------|


  Q  E. S E E Q    Q  Q  Q  Q    Q  E. S E E Q    Q  Q  Q  Q
|----------------|-------------|----------------|-------------|
|----------------|-------------|----------------|-------------|
|----x--x-x-x-x--|----x-----x--|----x--x-x-x-x--|----x-----x--|
|----------------|-------------|----------------|-------------|


  Q  E. S E E Q    Q  Q  Q  Q    Q  E. S E E Q    Q  Q  Q  Q
|----------------|-------------|----------------|-------------|
|----------------|-------------|----------------|-------------|
|----x--x-x-x-x--|----x-----x--|----x--x-x-x-x--|----x-----x--|
|----------------|-------------|----------------|-------------|


  Q  E. S E E Q    Q  Q  Q  Q    Q  E. S E E Q    Q  Q  Q  Q
|----------------|-------------|----------------|-------------|
|----------------|-------------|----------------|-------------|
|----x--x-x-x-x--|----x-----x--|----x--x-x-x-x--|----x-----x--|
|----------------|-------------|----------------|-------------|


  Q  E. S E E Q    Q  Q  Q  Q    Q  E. S E E Q    Q  Q  Q  Q
|----------------|-------------|----------------|-------------|
|----------------|-------------|----------------|-------------|
|----x--x-x-x-x--|----x-----x--|----x--x-x-x-x--|----x-----x--|
|----------------|-------------|----------------|-------------|


                 Gtr I (Bass)
  Q  E. S E E Q    E E E S S E E E S S
|----------------|---------------------|
|----------------|---------------------|
|----x--x-x-x-x--|-5---5---3-5---5---3-|
|----------------|---------------------|


  E E E S S S S S S E E   E E E S S E E E S S
|-----------------------|-----------------------|
|-----------3-3-2-2-----|-----------------------|
|-5---5---3---------5-2-|-5---5---3-5---5---3---|
|-----------------------|-----------------------|


  E E E. S S S S S E E   E E E S S E E E S S
|----------------------|---------------------|
|----------------------|---------------------|
|-5---5--0-3-3-2-2-0-2-|-5---5---3-5---5---3-|
|----------------------|---------------------|


  E E E S S S S S S E E   E E E S S E E E S S
|-----------------------|---------------------|
|-----------3-3-2-2-----|---------------------|
|-5---5---3---------5-2-|-5---5---3-5---5---3-|
|-----------------------|---------------------|


  E S S S  S S  S  S  S S   +S   E E
|-------------------------------------|
|---x-x-x-10-x------------------------|
|--------------10h12-12-8b9-(8)-------|
|-------------------------------10-8\-|


   1st & 2nd Verses
    E E E S S E E E S S   E E E S S S S S S E E
||----------------------|-----------------------|
||o---------------------|-----------3-3-2-2-----|
||o-5---5---3-5---5---3-|-5---5---3---------5-2-|
||----------------------|-----------------------|


  E E E S S E E E S S   E E E e E e E e   E E E. S E E E. S
|---------------------|---7---4---5---6-|--------------------|
|---------------------|-----------------|--------------------|
|-5---5---3-5---5---3-|-5---2---3---4---|-5---5--3-5---5--3--|
|---------------------|-----------------|--------------------|


  E E E S S S S S S E E   E E E S S E E E S S   E E E E E E E E
|-----------------------|---------------------|---7-------------||
|-----------3-3-2-2-----|---------------------|-----3-3-5-------||
|-5---5---3---------5-2-|-5---5---3-5---5---3-|-5---------0-3-4-||
|-----------------------|---------------------|-----------------||


 Chorus
  E e E e E e E e   E e E e E e E S S   E e E e E e E e
|---7---4---5---6-|---7---5---4-------|---7---4---5---6-|
|-----------------|-------------------|-----------------|
|-5---2---3---4---|-5---3---2---0-3p0-|-5---2---3---4---|
|-----------------|-------------------|-----------------|


  E e E e E e E S S   E e E e E e E e   E e E e E e E S S
|---7---5---4-------|---7---4---5---6-|---7---5---4--------|
|-------------------|-----------------|--------------------|
|-5---3---2---0-3p0-|-5---2---3---4---|-5---3---2---0-3p0--|
|-------------------|-----------------|--------------------|


                   1.
  E e E e E e E e   e S S S S S S +S  S E  E E
|---7---4---5---6-|---7-7-5h7--------------------||
|-----------------|-----------5h7-(7)-----------o||
|-5---2---3---4---|-5-----------------5-8-------o||
|-----------------|-----------------------10-8\--||


 2.
  E.  S  +S   S S  S  S S S   +S   E E
|----------------------------------------||
|----12-(12)-10-x------------------------||
|-----------------10h12-x-8b9-(8)--------||
|---------------------------------10-8\--||


 3rd Verse
  E E E S S E E E S S   E E E S S S S S S E E   E E E S S E E E S S
|---------------------|-----------------------|---------------------|
|---------------------|-----------3-3-2-2-----|---------------------|
|-5---5---3-5---5---3-|-5---5---3---------5-2-|-5---5---3-5---5---3-|
|---------------------|-----------------------|---------------------|


  E E E e E e E e   E E E. S E E E. S   E E E S S S S S S E E
|---7---4---5---6-|-------------------|-----------------------|
|-----------------|-------------------|-----------3-3-2-2-----|
|-5---2---3---4---|-5---5--3-5---5--3-|-5---5---3---------5-2-|
|-----------------|-------------------|-----------------------|


  E E E S S E E E S S   E e e e e e e e
|---------------------|---7-----------5-||
|---------------------|-----3-3-5-5-7---||
|-5---5---3-5---5---3-|-5---------------||
|---------------------|-----------------||


 Bridge
    E S S +S  S E +Q   +E. S   Q  +E. S Q.   E
|----------------------------|-----------------|
|----------------------------|-----------------|
|-/10---9-(9)---7-(7)--(7)---|--------7-7------|
|--------------------------0-|-0--(0)----------|


   E S S +S  S E +Q   +E. S   Q  +E. S Q.   E
|---------------------------|-----------------|
|---------------------------|-----------------|
|-10---9-(9)---7-(7)--(7)---|--------7-7------|
|-------------------------0-|-0--(0)----------|


   E S S +S  S E +Q   +E. S   Q  +E. S Q.   e   S S S S Q  S S S S e e
|---------------------------|-----------------|-------------------------||
|---------------------------|-----------------|-------------------------||
|-10---9-(9)---7-(7)--(7)---|--------7-7------|-------------------------||
|-------------------------0-|-0--(0)--------7-|-3-3-3------5-5-5---5-5--||


 Chorus
  E e E e E e E e   E e E e E e E S S   E e E e E e E e
|---7---4---5---6-|---7---5---4-------|---7---4---5---6-|
|-----------------|-------------------|-----------------|
|-5---2---3---4---|-5---3---2---0-3p0-|-5---2---3---4---|
|-----------------|-------------------|-----------------|


  E e E e E e E S S   E e E e E e E e   E e E e E e E S S
|---7---5---4-------|---7---4---5---6-|---7---5---4--------|
|-------------------|-----------------|--------------------|
|-5---3---2---0-3p0-|-5---2---3---4---|-5---3---2---0-3p0--|
|-------------------|-----------------|--------------------|


                                                              Out-Chorus
  E e E e E e E E   E  S  S  S  S S  S  S  S S    +S   E E     E e E e E e E e
|---7---4---5-----|---10h11---------------------------------||---7---4---5---6-|
|-----------------|---------12-10---------10----------------||-----------------|
|-5---2---3---4---|-----------------10h12----8b10-(8)-------||-5---2---3---4---|
|-----------------|-----------------------------------10-8\-||-----------------|


  E e E e E e E S S   E e E e E e E e   E e E e E e E S S
|---7---5---4-------|---7---4---5---6-|---7---5---4--------|
|-------------------|-----------------|--------------------|
|-5---3---2---0-3p0-|-5---2---3---4---|-5---3---2---0-3p0--|
|-------------------|-----------------|--------------------|


  E e E e E e E e   E e E e E e E S S   E e E e E e E e
|---7---4---5---6-|---7---5---4-------|---7---4---5---6-|
|-----------------|-------------------|-----------------|
|-5---2---3---4---|-5---3---2---0-3p0-|-5---2---3---4---|
|-----------------|-------------------|-----------------|


  E e E e E e E S S   E e E e E e E e   E e E e E e E S S
|---7---5---4-------|---7---4---5---6-|---7---5---4--------*|
|-------------------|-----------------|--------------------*|
|-5---3---2---0-3p0-|-5---2---3---4---|-5---3---2---0-3p0--*|
|-------------------|-----------------|--------------------*|            
Submit corrections

↑ Back to top | Tablatures and chords for acoustic guitar and electric guitar, ukulele, drums are parodies/interpretations of the original songs. You may use it for private study, scholarship, research or language learning purposes only