Home » R » Rose Royce »

Rose Royce - Car Wash Bass

Artists:  A B C D E F G H I J K L M N O P Q R S T U V W X Y Z # 

Car Wash Bass

(ver. 2) Click to play this song!
Rose Royce
Rose Royce - Carwash
Standard Tuning: EADG
Tabbey By: RTBM

Song Structure: A, B, A, Slap, A, C, A, Pre Chorus, Chorus, Slap
                               A, C, A, Pre Chorus, Chorus, Slap, 
                A, c, A, Pre Bridge, Bridge, Chorus, Slap, Chorus..end


Intro
G|--------------------------------------|
D|---5h7-3h5~ 3----------3-3------------|
A|-------------5-5\---3h5-5-5-5\--------|
E|-------------5------------5-----------|
B|-3\---------------3------------3\-----|
               *            *  

Verse: A                     B                          
G|-------------------------|-----------------4----|
D|---------------3322------|-------------------7--|
A|-55-35-5-35-5-5----55-3--|-55-35-5-35-5-5-2-----|
E|-------------------------|------------------5---|


Repeat: A


Slap part
G|-----------7---------|
D|--------5h7-7-55-3---|
A|-5-35-5-----------5--|
E|---------------------|
          s  ps ss ss

Repeat: A


Verse C
G|----------7-4-5-2--|
D|-------------------|
A|-55-35-5-5-2-3-0---|
E|-------------------|


Repeat: A


Pre Chorus              Chorus:7x
G|----------7-10--12-5-|--7-4-5-2--|
D|---------------------|-----------|
A|-55-35-5-5-8--10--3--|-5-2-3-0---|
E|---------------------|-----------|

Repeat: Slap part, A , C , A , Pre Chorus , Chorus ,
        Slap part, A , C , A


Pre Bridge            Bridge 
G|-----------7-5-4-2-|-------------------------------79-9~ 7-7--|
D|-------------------|----------------------------7h9-------9---|
A|-55-35-5-35-3-2-0--|-----5757------75-7-57-7------------------|
E|-------------------|-320-----0-320---7----0--320--------------|

Repeat: Chorus, Slap part , Chorus




Slap Bass 
G|---77--5------77-----5------77--5h7----5---77--5h7---2-5----|
D|--------5-3-----xx5h7-5p3-------------------------0h3-------|
A|-/5--xx----5-5-----------5-5--xx---02/3---5--xx-------3-----|
E|------------------------------------------------------------|
B|------------------------------------------------------------|
    sppsspp ss sppsss  ps    Sppssp  ss sp  sppssp  s  psp



G|-45---------------4--5---77--5h7---2-5--77--5h7----5--------------|
D|-------3----33------------------0h3-------------------------------|
0|---3h5--3h5---5-22-33---5--xx-------3--5--xx---02/3---------------|
E|------------------------------------------------------------------|
B|------3----3------------------------------------------------------|     
   pps  sps  spss sspssp  sppssp  s  psp sppsspp ss sp
            
Submit corrections

↑ Back to top | Tablatures and chords for acoustic guitar and electric guitar, ukulele, drums are parodies/interpretations of the original songs. You may use it for private study, scholarship, research or language learning purposes only