» » »

Rory Gallagher - Tattood Lady Irish Tour 74 Tabs

Artists:  A B C D E F G H I J K L M N O P Q R S T U V W X Y Z # 

Tattood Lady Irish Tour 74 Tabs

(ver. 2) Click to play this song!
Rory Gallagher
 Rating:
3/5 (28 votes)

 Tattood Lady Irish Tour 74  lessons Tabs too difficult? Try these video lessons and learn fast
 
                Tuning: EADGBe

E|12----12-12-12-12-12-12-12-12|12----12-12-12-12-12-12-12-12|12----12-12-12-12-12-12-12-12|
B|15b17------------------------|15b17------------------------|15b17------------------------|
G|-----------------------------|-----------------------------|-----------------------------|
D|-----------------------------|-----------------------------|-----------------------------|
A|-----------------------------|-----------------------------|-----------------------------|
E|-----------------------------|-----------------------------|-----------------------------|

E|12~-12-12-12-12-12-12-12--------------|---------------------------------------------------------------|
B|-------------------------15pbr17-12-12|15p12-15p12-15p12-15p12-------12-15--12h15p12------------------|
G|--------------------------------------|------------------------12-14-----------------14-12-11-12-11---|
D|--------------------------------------|-------------------------------------------------------------14|
A|--------------------------------------|---------------------------------------------------------------|
E|--------------------------------------|---------------------------------------------------------------|

E|--------------------------------------------|--------------------------------------------------------|
B|--------------------------------------------|--------------------------------------------------------|
G|---11-12-14-12-11----11-12-14-12-11----11-12|14p12p11-11-14p12p11-11-14p12p11-11-12-11----11---------|
D|14----------------14----------------14------|------------------------------------------14----12-11---|
A|--------------------------------------------|------------------------------------------------------14|
E|--------------------------------------------|--------------------------------------------------------|

E|---------------------------------------------|----------------------------------------------|
B|---12b---------------------------------------|----------------------------------------------|
G|---12b---------------------------------------|----------------------------------------------|
D|12-----14-12h14p12----12----------------12-14|---------12-14-----------12-14-----------12-14|
A|-------------------14----14-12----12-14------|---12-14-----------12-14-----------12-14------|
E|-------------------------------15------------|15--------------15--------------15------------|

E|----------------------------------------|------------------------------------------------------------|
B|---------------12b----12b----12b-12b----|------------------------------------------------------------|
G|---------------12b----12b----12b-12b----|14b16-14pb16-14pb16-14pb16-14pb16-14pb16-14pbr16p12-14-12---|
D|---------12-14-----14-----14---------14\|----------------------------------------------------------14|
A|---12-14--------------------------------|------------------------------------------------------------|
E|15--------------------------------------|------------------------------------------------------------|

E|------------------------------------------------------------|
B|------------------------------------------------------------|
G|14b16-14pb16-14pb16-14pb16-14pb16-14pb16-14pbr16p12-14-12---|
D|----------------------------------------------------------14|
A|------------------------------------------------------------|
E|------------------------------------------------------------|

E|------------------------------------------------------|------------------------------------------------------|
B|------------------------------------------------------|------------------------------------------------------|
G|14b16-14pb16-14pb16-14pb16-14pb16-14pb16-14pb16-14pb16|14b16-14pb16-14pb16-14pb16-14pb16-14pb16-14pb16-14pb16|
D|------------------------------------------------------|------------------------------------------------------|
A|------------------------------------------------------|------------------------------------------------------|
E|------------------------------------------------------|------------------------------------------------------|

E|5-0-3-0-5-0-3-0-5-0-3-0-5|-------10---------------------|------------------------------5--------------|
B|-------------------------|-10b12----10pbr12p8-10p8---8-7|8-7-5-8-7-5-8-7-5---7---7h8-8---7-7h8p7-5-5~~|
G|-------------------------|-------------------------9----|------------------9---9----------------------|
D|-------------------------|------------------------------|---------------------------------------------|
A|-------------------------|------------------------------|---------------------------------------------|
E|-------------------------|------------------------------|---------------------------------------------|

E|12-0-0-9-0-0-12-0-0-9-0-12\|--0-0-5-0-5-0-5-0-5-0-5-0-5-0-5|0-5-0-5-0-5-0-5-0-5-0-5-0-5-0-5|
B|---------------------------|5------------------------------|-------------------------------|
G|---------------------------|-------------------------------|-------------------------------|
D|---------------------------|-------------------------------|-------------------------------|
A|---------------------------|-------------------------------|-------------------------------|
E|---------------------------|-------------------------------|-------------------------------|

E|0-0-0-7-0-10-0-7-0-10-0-7-0-10-0-7-0|7-0-10-0-7-0-10-0-7-0-10-0-7-0-10-0|7-0-10-0-7-0-10-0-7-0-10-0---------|
B|------------------------------------|-----------------------------------|---------------------------10b12~~~|
G|------------------------------------|-----------------------------------|-----------------------------------|
D|------------------------------------|-----------------------------------|-----------------------------------|
A|------------------------------------|-----------------------------------|-----------------------------------|
E|------------------------------------|-----------------------------------|-----------------------------------|

E|----------------------------------|0---0-0-0-0-0-0-0-0|0---0-0-0-0-0-0-0-0|0-0-0-0-0-0-0-0-0--|
B|10pbr12-8-10-8-7------------------|3/5-5-5-5-5-5-5-5-3|3/5-5-5-5-5-5-5-5-3|3-3-5-5-7-7-8-8-10\|
G|-----------------9-9--9br11p7---7b|-------------------|-------------------|-------------------|
D|------------------------------9---|-------------------|-------------------|-------------------|
A|----------------------------------|-------------------|-------------------|-------------------|
E|----------------------------------|-------------------|-------------------|-------------------|

E|0-0-0-0-0-0-0-0-0|0-0-0-0-0-0-0-0-0-0-0-0-0-0-0-0|0-0-0-0-0-0-0-0-0--0--0-0-0-0-0-0|
B|5-5-5-5-5-5-5-5-5|5-5-5-5-3-3-3-3-5-5-7-7-8-8-7-7|7-7-7-7-8-8-8-8-10-10-8-8-7-7-5-3|
G|-----------------|-------------------------------|---------------------------------|
D|-----------------|-------------------------------|---------------------------------|
A|-----------------|-------------------------------|---------------------------------|
E|-----------------|-------------------------------|---------------------------------|

E|0---0-0-0-0-0-0-0-0|0----0--0----|-----------------------------|-------------------------------------|
B|3/5-5-5-5-5-5-5-5-3|3/5--5--5/15\|-----------------------------|-------------------------------------|
G|-------------------|-------------|---------12----14-12---------|---------12----14-12-14b16-14pbr16---|
D|-------------------|-------------|14-14-14----14-------14-14-12|14-14-14----14---------------------14|
A|-------------------|-------------|-----------------------------|-------------------------------------|
E|-------------------|-------------|-----------------------------|-------------------------------------|

E|-----------------------------------|------------------------------------------|
B|15p12-12-15p12-12-15p12-12-15p12-12|15p12-12-15--12h15p12----12---------------|
G|-----------------------------------|----------------------14----14-12-11-12-11|
D|-----------------------------------|------------------------------------------|
A|-----------------------------------|------------------------------------------|
E|-----------------------------------|------------------------------------------|

E|----------------------------------|------------------------------|--------------------------------|
B|----------------------------------|------------------------8b-10\|10br12p8-10-8-10-8-7------------|
G|12-11-9-12-11-9-12-11-9-12-11-9-11|11h12p11-9--7h9p7---7-7-------|---------------------9-9-9-9-9-9|
D|----------------------------------|------------------9-----------|--------------------------------|
A|----------------------------------|------------------------------|--------------------------------|
E|----------------------------------|------------------------------|--------------------------------|

E|-----------------------|--------------------------------------------|---------------------|
B|------8p7----8-7-------|10b12-10pb12-10pb12-10pb12-8-10br12p8-10-8-8|---------------------|
G|9-9-9-----9-------9-9-7|--------------------------------------------|9-9--9-7----7--------|
D|-----------------------|--------------------------------------------|---------9----9-7-5-7|
A|-----------------------|--------------------------------------------|---------------------|
E|-----------------------|--------------------------------------------|---------------------|

E|0--------|-------------------------|------|
B|0--------|-----------------------p0|------|
G|0--------|0h2p0h2p0h2p0h2p0h2p0h2p0|0-----|
D|2--------|-------------------------|2-----|
A|2--------|-------------------------|2-----|
E|0--------|-------------------------|0-----|            
Submit corrections


        Tattood Lady Irish Tour 74  lessons Hard to play? Try these video lessons and learn fast Tattood Lady Irish Tour 74  lessons
        
↑ Back to top | Tablatures and chords for acoustic guitar and electric guitar, ukulele, drums are parodies/interpretations of the original songs. You may use it for private study, scholarship, research or language learning purposes only