» » »

Rory Gallagher - Pistol Slapper Blues Tabs

Artists:  A B C D E F G H I J K L M N O P Q R S T U V W X Y Z # 

Pistol Slapper Blues Tabs

(ver. 2) Click to play this song!
Rory Gallagher
 Rating:
4/5 (4 votes)

 Pistol Slapper Blues lessons Tabs too difficult? Try these video lessons and learn fast
 
                Gtr I (E A D G B E) - 'Rory Gallagher - Acoustic Guitar'


   Intro
    Q=198(8=s8)
    N.C.
   4/4
    Gtr I
     E E E  E E E  E  E    E E E  E E E  E  E
||--12p0---12p0---------|-11p0---11p0---------|
||o------0------0-------|------0------0-------|
||--12------------12s11-|-11------------11s10-|
||----------------------|---------------------|
||o---------------------|---------------------|
||----------------------|---------------------|


                      1.
   E E E  E E E  E E   E E  E E E E  q
|-10p0---10p0--------|-------------------||
|------0------0------|---8-10-8---8-10--o||
|-10------------10s6S|=9--------9--------||
|--------------------|-------------------||
|--------------------|------------------o||
|--------------------|-------------------||


  2.
                    F                                   C
            ~
   E E  E E Q  Q    E E E E E E E E   E E E E E E E E   E E E E E E E E
|-----------------|-----------------|-----------------|-----------------|
|----8-10-8-------|---6---6---6---6-|---6---6---6-----|-----------------|
|-/9--------9-----|-----8-------8---|-----8-------8-0-|---------0-------|
|--------------0--|-----7-------7---|-----7-------7---|---1-1-2---2-1-0-|
|-----------------|-8---------------|-8---------------|-3---------------|
|-----------------|---------8-------|---------8-------|-----------------|


                    F                                   D7/F#
  E E E E E E E E   Q  Q  a E E E E   a E E E E Q  Q    Q  Q  E E E E
|-----------------|----1----------0-|---------0-------|----2----2-2-0-|
|-----------------|----1------4-----|-----6-----4--0--|----1----1-1-0-|
|-----------------|----2--2s5---5---|-4s7---7---5--0--|-2--2----2-2-0-|
|-----------------|----3------------|-----------------|-0--0----0-0---|
|-3-1-0---0---0-0-|-----------------|-----------------|---------------|
|-------3---3-----|-1---------------|-----------------|-2-----2-------|


                   1st, 3rd & 5th Verses
                $
  G7                C             G7              C
  Q  Q  E E E E     Q  Q  Q  Q    Q  Q  E E E E   Q  Q  E E Q
|----1----1-1-0-||-----0-----0--|----1----1-1---|----0----0-0--|
|----0----0-0-0-||o----1-----1--|----0----0-0-0-|----1----1-1--|
|----0----0-0-0-||-----0-----0--|----0----0-0-0-|----0----0-0--|
|----0----0-0---||-----2-----2--|----0----0-0-0-|----2----2-2--|
|----2----2-2---||o-3--3-----3--|----2------2---|-3--3------3--|
|-3-----3-------||--------3-----|-3-----3-------|-------3------|


  F              C             D/F#  G7        C
  Q  Q  E E Q    Q  Q  Q  Q    Q  Q  Q   Q     Q  Q  E E Q
|----1----1-1--|----0-----0--|----------(1)--|----0----0-0--|
|----1----1-1--|----1-----1--|-----------0---|----1----1-1--|
|----2----2-2--|----0-----0--|-2---------0---|----0----0-0--|
|----3----3-3--|----2-----2--|-0--0------0---|----2----2-2--|
|--------------|-3--3-----3--|-----------2---|-3--3------3--|
|-1-----1------|-------3-----|-2-----3-------|-------3------|


                  2nd, 4th & 6th Verses
  G7               C               G7              C
  Q  Q  E E E E    Q  Q  E E E E   Q  Q  E E E E   Q  Q  E E Q
|----1----1-----||----0----0-0-0-|----1----1-1---|----0----0-0--|
|----0----0-----||----1----1-1-1-|----0----0-0-0-|----1----1-1--|
|----0----0-0-0-||----0----0-0-0-|----0----0-0-0-|----0----0-0--|
|----0----0-0-0-||----2----2-2-2-|----0----0-0-0-|----2----2-2--|
|----2----2-2-2-||-3--3----3-3-3-|----2------2---|-3--3------3--|
|-3-----3---3-3-||-------3-------|-3-----3-------|-------3------|


                                                         To Coda
  F              C               D/F#  G7        C
  Q  Q  E E Q    Q  Q  E E E E   Q  Q  E E E E   Q  E E E E E E
|----1----1-1--|----0----0-0-0-|---------1-1-1-|----0-0---0-0-0---|
|----1----1-1--|----1----1-1-1-|---------0-0-0-|----1-1---1-1-1---|
|----2----2-2--|----0----0-0-0-|-2-------0-0-0-|----0-0---0-0-0---|
|----3----3-3--|----2----2-2-2-|-0--0----0-0-0-|----2-2---2-2-2---|
|--------------|-3--3----3-3-3-|---------2-2-2-|-3--3-----3-3-3---|
|-1-----1------|-------3-------|-2-----3-------|--------3---------|


                                   Guitar Solo
  1.               2.
  G7                G7              N.C.
  Q  Q  E E E E     Q  Q  E E Q      E E E  E E E  Q     E E E  E E E Q
|----1----1------||----1----1----||-12p0---12p0-------|-12p0---12p0------|
|----0----0-----o||----0----0-0--||------0------0-----|------0------0----|
|----0----0-0-0--||----0----0-0--||-12------------12--|-12------------0--|
|----0----0-0-0--||----0----0-0--||-------------------|---------------0--|
|----2----2-2-2-o||----2----2----||-------------------|---------------0--|
|-3-----3---3-3--||-3-----3------||-------------------|------------------|


  E    +E  Q  E    +E  Q    E    +E  Q  E    +E  Q
|----------8-----------8--|----------8--------------|
|-9b10-(9)----9b10-(9)----|-9b10-(9)----9b10-(9)----|
|-------------------------|----------------------0--|
|-------------------------|----------------------0--|
|-------------------------|----------------------0--|
|-8-----------8-----------|-8--------8--8-----------|


  E E E E E E E E   E E E E E E E E
|-----------------|-----------------|
|-----------------|-----------------|
|---------0-------|-----------------|
|---1-1-2---2-1-0-|-----------------|
|-3---------------|-3-1-0---0---0---|
|-----------------|-------3---3---3-|


  C              G7             N.C.
  Q  Q  E E Q    Q  Q  E E Q    E E E E E E E E   E E E E Q  Q
|----0----0-0--|----1----1----|-----------------|---------------|
|----1----1-1--|----0----0----|---5-5-5---6-6-6-|---7-7-7-8-----|
|----0----0-0--|----0----0----|---0-0-0---0-0-0-|---0-0-0-0-----|
|----2----2-2--|----0----0----|-----------------|---------------|
|-3--3------3--|----2----2-0--|-3-------5-------|-6-------7-----|
|-------3------|-3-----3------|-----------------|---------------|


                                                       |-3-|
  E E E E E E E E   E E E E Q  E E   E E E E E E E E   E E E E E E E E E
|-----------------|----------------|-----------------|--------------------|
|---5-5-5---6-6-6-|---7-7-7-8----0-|-1-1-3-1-4-1-3-1-|--------------------|
|---0-0-0---0-0-0-|---0-0-0-0------|-2---------------|-0h2p0---0----------|
|-----------------|----------------|-----------------|-------3---1p0---0--|
|-3-------5-------|-6-------7------|-----------------|---------------3----|
|-----------------|----------------|-----------------|--------------------|


  C              D/F#      G         C
  Q  Q  E E Q    E E E  E  E E E E   Q  Q  E E Q
|----0----0-0--|-------------------|----0----0-0--|
|----1----1-1--|-------(0)---0-0-0-|----1----1-1--|
|----0----0-0--|-2-2-2-(0)---0-0-0-|----0----0-0--|
|----2----2-2--|-0-0-0-(0)---0-0-0-|----2----2-2--|
|-3--3------3--|-------------2-2-2-|-3--3------3--|
|-------3------|-2-2-2-----3-3-3-3-|-------3------|


  G7              N.C.
  Q  Q  E E E E   Q      E E E E     Q    Q  E E     E E Q
|----1----1-----|----------3------------|-3------------0----|
|----0----0-----|-5b5.5--------5b5.5----|------5b5.5--------|
|----0----0-2-0-|-----------------------|-------------------|
|----0----0-----|-----------------------|-------------------|
|----2----2-----|-----------------------|----------------0--|
|-3-----3-------|-3------3---3-------3--|-3--3-------3------|


   E  E E  E E E  E E   E  E E E  E E Q    E E E E E E E E   E E E E E E E E
|---------------------|------------------|-----------------|-----------------|
|---------10p0--------|---10p0--------8--|-----------------|-----------------|
|-10-------------10p0-|----------10p0----|---0-----0-------|-----------------|
|-------7-------------|------------------|-----1-2---2-1-0-|-----------------|
|--8h10--------8------|-8------8---------|-3---------------|-3-1-0---0-1-2-0-|
|---------------------|------------------|-----------------|-------3---------|


                      D.S. al Coda &
  C                 G7                C
  Q  Q  E E E  E    Q  Q  E E E E     Q  Q  Q  Q    Q  Q  Q  Q
|----0----0-0-----|----1----1-1-1--||-0-----------|--------------|
|----1----1-1-(0)-|----0----0-0-0--||-1-----------|--------------|
|----0----0-0-(0)-|----0----0-0-0--||-0-----------|--------------|
|----2----2-2-(0)-|----0----0-0-0--||-2-----------|--------------|
|-3--3------3-----|----2----2-2-2--||-3-----x-----|-x-----x------|
|-------3---------|-3-----3--------||-------------|--------------|


                                              D/F#   G
  Q  Q  Q  Q    Q  Q  Q  E E   Q  Q  E E Q    Q  E E E E E E
|-------------|--------------|----0----0-0--|----------------|
|-------------|----------0-0-|----1----1-1--|----------------|
|-------------|----------0-0-|----0----0-0--|----2-2---0-0-0-|
|-------------|----------0-0-|----2----2-2--|----0-0---0-0-0-|
|-x-----x-----|-x-----x------|-3--3------3--|----------2-2-2-|
|-------------|--------------|-------3------|-2--2-2-3-3-3-3-|


  C                 G7               N.C.
  Q  Q  E E E  E    Q  E E E E E E   E E E E E E E E   E E E E E E E E
|----0----0-0-----|----1-1---1-1---|-----------------|-----------------|
|----1----1-1-(0)-|----0-0---0-0-0-|-----------------|-----------------|
|----0----0-0-(0)-|----0-0---0-0-0-|---------0-0-----|-----------0-2-0-|
|----2----2-2-(0)-|----0-0---0-0-0-|---0-1-2-----2-1-|-0---0-1-2---3-0-|
|-3--3------3-----|----2-2---2-2---|-3---------------|---3---------3-0-|
|-------3---------|-3------3-------|-----------------|-----------------|


                                     C               D/F#    G
  E E E E E E E  E    q  q  Q  E E   Q  E E E E Q    E E E E E E E E
|-------------------|--------------|----0-0---0-0--|-----------------|
|-------------------|--------------|----1-1---1-1--|-----------0-0-0-|
|-------------------|--------------|----0-0---0-0--|---2-2-2---0-0-0-|
|-------------5-----|-3--2--0------|----2-------2--|---0-0-0---0-0-0-|
|-----3---5s7---(7)-|----------3-0-|-3--3-------3--|-----------2-2-2-|
|-3s5---5-----------|--------------|--------3------|-2-2-2-2-3-3-3-3-|


                          Freely Q=72
  C               D/F#    G         C    N.C.
                                         |-3-| |-3-|
  Q  E E E E Q    E E E E E E E E   H    E E E E E E
|----0-0---0-0--|-----------0-1-2-|-3------2-----1---|
|----1-1---1-1--|---------0-0-0-0-|-5----4---4-3---3-|
|----0-0---0-0--|---2-2-2-0-------|------------------|
|----2-------2--|---0-0-0-0-------|------------------|
|-3--3-------3--|---------2-------|-3----------------|
|--------3------|-2-2-2-2-3-0-0-0-|------2---2-1---1-|


                                             C7
                                             TP
                 |-3-|
  Q  Q   S S S S S S S E   +Q   a Q  Q  Q    W          +H     H
|-0-----^1---------------|-----------------|-0--------|-(0)---------*|
|-1-----^1-3-4-1---------|------3s5--4--3--|-1--------|-(1)---------*|
|----2--^1-------1h2p1---|-----------------|-3--------|-(3)---------*|
|----3--^3-------------3-|-(3)--3s5--4--3--|-2--------|-(2)---------*|
|-3--3-------------------|-----------------|-3--------|-(3)---------*|
|------------------------|-----------------|----------|-------------*|            
Submit corrections


        Pistol Slapper Blues lessons Hard to play? Try these video lessons and learn fast Pistol Slapper Blues lessons
        
↑ Back to top | Tablatures and chords for acoustic guitar and electric guitar, ukulele, drums are parodies/interpretations of the original songs. You may use it for private study, scholarship, research or language learning purposes only