» » »

Rollins Band - What Do You Do Tabs

Artists:  A B C D E F G H I J K L M N O P Q R S T U V W X Y Z # 

What Do You Do Tabs

(ver. 1) Click to play this song!
Rollins Band
 Rating:
4/5 (4 votes)
                #------------------------------------------------------------------------------##


                ROLLINS BAND      "What do you do"

-------------------------------------------------------------------------------|
-------------------------------------------------------------------------------|
-------------------------------------------------------------------------------|
-------------------------------------------------------------------------------|
---3--0-----0---6--5--3--0-----0--3--0----0------------------------------------|
---------3------------------3----------3---------------------------------------|

-------------------------------------------------------------------------------|
-------------------------------------------------------------------------------|
-------------------------------------------------------------------------------|
-------------------------------------------------------------------------------|
--1--0---------4--3--1--0--------1--0-------1--0------1--0---------------------|
--------1--3---------------1--3-------1--3-------1--3-------1--3---------------|
            
Submit corrections

↑ Back to top | Tablatures and chords for acoustic guitar and electric guitar, ukulele, drums are parodies/interpretations of the original songs. You may use it for private study, scholarship, research or language learning purposes only