» » »

Rodriguez - I Wonder Bass

Artists:  A B C D E F G H I J K L M N O P Q R S T U V W X Y Z # 

I Wonder Bass

(ver. 2) Click to play this song!
Rodriguez
 Rating:
4/5 (4 votes)

 I Wonder lessons Tabs too difficult? Try these video lessons and learn fast
 
                I Wonder - Rodriguez


Tuning: Standard (E A D G)

Riff (intro & bridge)                   (x7)
G|------------------6-----|------------------6-----|
D|--------------7-9---7---|--------------7-9---7---|
A|----------7-9---------9-|7---------7-9---------9-|
E|------------------------|------------------------|

Verse (x2)
  A                        Amaj7                    
G|------------------------|------------------6-----|
D|7---------7-7-----------|7-------------7-9---7---|
A|------------------7-----|----------7-9---------9-|
E|------------------------|------------------------|
  D                        E
G|------------------------|------------------6-----|
D|------------------------|--------------7-9---7---|
A|5---------5-5-----5---5-|7---------7-9---------9-|
E|--------------------7---|------------------------|

For the I wonder, I wonder bit:
  A                        Amaj7                    
G|------------------------|------------------6-----|
D|7---------7-7-----------|7-------------7-9---7---|
A|------------------7-----|----------7-9---------9-|
E|------------------------|------------------------|
  D                        E
G|------------------------|------------------6-----|
D|------------------------|--------------7-9---7---|
A|5---------5-5---5---0---|----------7-9---------9-|
E|--------------7---7---2-|0-----------------------|
            
Submit corrections


        I Wonder lessons Hard to play? Try these video lessons and learn fast I Wonder lessons
        
↑ Back to top | Tablatures and chords for acoustic guitar and electric guitar, ukulele, drums are parodies/interpretations of the original songs. You may use it for private study, scholarship, research or language learning purposes only