» » »

Rodriguez - I Wonder Bass

Artists:  A B C D E F G H I J K L M N O P Q R S T U V W X Y Z # 

I Wonder Bass

(ver. 1) Click to play this song!
Rodriguez
 Rating:
4/5 (4 votes)

 I Wonder lessons Tabs too difficult? Try these video lessons and learn fast
 
                I wonder by Rodriguez
Tuning : E A D G (standard)

Riff 1 (intro & bridge)
E|-0-2---------2-0--|
A|-----0-2-4-0------|
D|------------------|
G|------------------|

Riff 2 (rest of the song)
  A               Amaj7            D                E
E|----------0----|-0-2---------2--|-------------0--|-0-2---------2--|
A|-0~--0-0----0--|-----0-2-4-0----|-/5~--5-5--5----|-----0-2-4-0----|
D|---------------|----------------|----------------|----------------|
G|---------------|----------------|----------------|----------------|

It is simplified version of bass guitar, there is still problem with moment on "D" 
chord... But if I get this, I will update this tab.
This is my first tab, so be respectful ;)

____________________

Sorry for bad English... but I think music is the only one worldwide language ;)
            
Submit corrections


        I Wonder lessons Hard to play? Try these video lessons and learn fast I Wonder lessons
        
↑ Back to top | Tablatures and chords for acoustic guitar and electric guitar, ukulele, drums are parodies/interpretations of the original songs. You may use it for private study, scholarship, research or language learning purposes only