» » »

Rodrigo Y Gabriela - Vikingman Tabs

Artists:  A B C D E F G H I J K L M N O P Q R S T U V W X Y Z # 

Vikingman Tabs

(ver. 2) Click to play this song!
Rodrigo Y Gabriela
 Rating:
4/5 (4 votes)

 Vikingman lessons Tabs too difficult? Try these video lessons and learn fast
 
                (Intro)
Rodrigo y Gabriela – Vikingman (intro)


This part is played palm mute!

e|----------------|-------------------|----------------|----------------|
B|----------------|------8------------|----------------|------8---------|
G|------7-10-9-7--|----7----10-9-7----|-----7-10-9-7---|----7----10-9-7-|
D|----------------|-(7)---------------|----------------|-(7)------------|
A|-10-------------|-------------------|-10-------------|----------------|
E|----------------|-------------------|----------------|----------------|

e|----------------|-------------------|----------------|----------------|
B|----------------|------8------------|----------------|----------10~~--|
G|-----7-10-9-7---|----7-----10-9-7---|----7-10-9-7----|-------10-------|
D|----------------|-(7)---------------|----------------|----12----------|
A|-10-------------|-------------------|-10-------------|-12-------------|
E|----------------|-------------------|----------------|----------------|


e|---------------------|-------------------|-----------------------------------|
B|--------------8------|-------------------|-------------8----/10-9-8----------|
G|-10-7----7-10----10--|-9-6----6-7-10--6--|-10-7---7-10---10---------11-10-9--|
D|-------8-------------|------7------------|------8----------------------------|
A|---------------------|-------------------|-----------------------------------|
E|---------------------|-------------------|-----------------------------------|


e|-----------------------------------|
B|-------------8---------------------|
G|-10-7---7-10----10-----9--6--------|
D|------8-----------------------8--7-|
A|-----------------------------------|
E|-----------------------------------|
                                                                                         
                                   .
e|------------------|-------------------|----------------------------------|
B|-----6-5h6p5------|-----6-5h6p5-------|-----6-5---8--------8--6-5--------|
G|---7---------7----|---7----------7----|---7-----7--------7---------7-----|
D|-7-------------7--|-7--------------8--|-8--------------7-----------------|
A|------------------|-------------------|----------------------------------|
E|------------------|-------------------|----------------------------------|


e|------------------|-------------------|----------------------------------|
B|-----6-5h6p5------|-----6-5h6p5-------|-----6-5---8--------8--6-5--------|
G|---7---------7----|---7----------7----|---7-----7--------7---------7-----|
D|-7-------------7--|-7--------------8--|-8--------------7-----------------|
A|------------------|-------------------|----------------------------------|
E|------------------|-------------------|----------------------------------|

e|-5-----5h6p5--------|-5------5--4--3-|-3----------3-6-5-3------3h5p3---------|
B|---6----------6-----|---6------------|---5------5----------6-5---------6-6---|
G|-----7-----------7--|-----7----------|-----6--6------------------------------|
D|--------------------|----------------|---------------------------------------|
A|--------------------|----------------|---------------------------------------|
E|--------------------|----------------|---------------------------------------|


e|-5-----5h6p5-----|-3-5-3h5p3--3----------3-6-5-3--------|
B|---6---------6---|--------------5------5----------6-5-3-|
G|-----7---------7-|----------------6--6------------------|
D|-----------------|--------------------------------------|
A|-----------------|--------------------------------------|
E|-----------------|--------------------------------------|


e|------------------|-------------------|----------------------------------|
B|-----6-5h6p5------|-----6-5h6p5-------|-----6-5---8--------8--6-5--------|
G|---7---------7----|---7----------7----|---7-----7--------7---------7-----|
D|-7-------------7--|-7--------------8--|-8--------------7-----------------|
A|------------------|-------------------|----------------------------------|
E|------------------|-------------------|----------------------------------|


e|------------------|-------------------|----------------------------------|
B|-----6-5h6p5------|-----6-5h6p5-------|-----6-5---8--------8--6-5---5----|
G|---7---------7----|---7----------7----|---7-----7--------7--------7---7~-|
D|-7-------------7--|-7--------------8--|-8--------------7-----------------|
A|------------------|-------------------|----------------------------------|
E|------------------|-------------------|----------------------------------|

Suggestions and corrections of any kind are wellcome.
            
Submit corrections


        Vikingman lessons Hard to play? Try these video lessons and learn fast Vikingman lessons
        
↑ Back to top | Tablatures and chords for acoustic guitar and electric guitar, ukulele, drums are parodies/interpretations of the original songs. You may use it for private study, scholarship, research or language learning purposes only