» » »

Rodrigo Y Gabriela - Stairway To Heaven Tabs

Artists:  A B C D E F G H I J K L M N O P Q R S T U V W X Y Z # 

Stairway To Heaven Tabs

(ver. 2) Click to play this song!
Rodrigo Y Gabriela
 Rating:
2.8/5 (51 vote)

 Stairway To Heaven lessons Tabs too difficult? Try these video lessons and learn fast
 
                (Intro)
Rodrigo y Gabriela - Stairway to Heaven (Led Zeppelin cover)

A few people have asked how to play this cover of 'Stairway to heaven'.  A lot of it is
to the Zeppelin original and a lot more interesting to play.  The timing isn't perfectly
out in the tab but if you listen to the track I'm sure you'll be able to get it.  The 
thing you need to know is that the * symbol means a natural harmonic.

with some updates and think that it is practically spot on now.  Sorry to all the people


Standard Tuning

|-5-7---8--7p5---7--5-7---8-10-8-----8-10-12-10-8-7--------------|
|---------------------------------10------10------9-10-8---------|
|---------------------------------9-------10------7-------5------|
|-----7--------6--------5---------10------------------------7----|
|---------------------------------9---------------------------0--|
|----------------------------------------------------------------|


|-----------------5-8-7-5---7--12-----------------7-----8-10-8----|
|----------------5---------------10------------10--------------10-|
|---------------5------------------9-12-11-9-8-----------------9--|
|--------------7----------6------------------------------------10-|
|-12*--7/8-7--0--------------------------------------10--------9--|
|-----------------------------------------------------------------|


|------------------------------------------------|
|---------------------------------------------5--|
|--------------9-7--------5-----4-------------5--|
|----10---12-------10---7-----5---------------5--|
|-10----9----8--------6-----5-----5/6\5-3-----x--|
|-----------------------------------------3/5-5--|


|--------------------------------5-7---------8-10---------3-5--------|
|-----------3-5--7-5----5-------------------8------------3-----8-7-7-|
|---------5------7---7--5-7-5--------------9------------4------7-----|
|-------5--------0------7----------------10------------5-------0-----|
|-0-2-3-----------------0-----0---------10------------5--------------|
|-------------------------------------8-------------3----------------|


|----------------------------------------------------------8-12-8-----7-|
|------------------------7-8-7-5-------------------------10------10-10--|
|----------------------5---------7------9-10-9-7--------9----------9----|
|---10--9-----------------------------7----------10---------------------|
|-0---------10--5-7-5---------------8----------------0------------------|
|-----7---8-------------------------------------------------------------|


|---------8-10--12*-------3-5--7*--------------------------------------------------------|
|--------8------12*------3-----7*--------------------------------------------------------|
|-------9---------------4--------------------5-----------8------------11------10------9--|
|-----10---------------5---------------5---3-------8---6-------11---9--------------------|
|---10----------------5--------------3---1-------6---4-------9----7-------10------11-----|
|-8-----------------3--------------1-----------4-----------7-----------------------------|


|-5-7---8-7p5---7--5-7---8-10-8------------8-10-----12-10-8---7--------------|
|--------------------------------10-9-8-7-----------10--------9-10-8---------|
|--------------------------------9--8-7-6-----------10--------7-------5------|
|-----7-------6--------5---------10-9-8-7--------0----------------------7----|
|--------------------------------9--8-7-6---------------------------------0--|
|-----------------------------------------------------------0----------------|


|----------------5-------7-------7-------2-------0--0--0----|
|---------------5-5-----5-5-----5-5-----3-3-----1-1--1--1---|
|--------------5---5---5---5---5---5---2---2---2---2--2--2--|
|-------------7-----7-6-----6-5-----5-4-----4-3-------------|
|-12*--7/8-7-0-------0-------0-------0-------0--------------|
|-----------------------------------------------------------|
             ^ gets progressively faster


|-0-----------------------------------------------5-|
|---1---------------------------------5----------5--|
|-----2---------0h2/5-4-0---------5-----5-------5---|
|-------3-----0-----------2-----5---5----------5----|
|---------0-----------------0-------------0---x-----|
|-----------3--------------------------------5------|

- No, I don't have the rest of the song.  I'll update it if I do.
            
Submit corrections


        Stairway To Heaven lessons Hard to play? Try these video lessons and learn fast Stairway To Heaven lessons
        
↑ Back to top | Tablatures and chords for acoustic guitar and electric guitar, ukulele, drums are parodies/interpretations of the original songs. You may use it for private study, scholarship, research or language learning purposes only