» » »

Rodrigo Y Gabriela - Orion Tabs

Artists:  A B C D E F G H I J K L M N O P Q R S T U V W X Y Z # 

Orion Tabs

(ver. 3) Click to play this song!
Rodrigo Y Gabriela
 Rating:
4/5 (12 votes)

 Orion lessons Tabs too difficult? Try these video lessons and learn fast
 
                -----------------------------------------------------------------------------
                             Orion - Rodrigo y Gabriela
-----------------------------------------------------------------------------


    This version of Rodrigo and Gabrielas Orion was not on their self-titled
album "Rodrigo y Gabriela". It doesn't have the acoustic precussion thumping in it and 
different in areas. I like this version better because I think it has more of a Spanish 
flair to it. I'm also tabbing this out on an acoustic without a cutout so its kind of 
hard for me to tab out some parts.
This is also my first tab.

Tuning: E A D G B e
| /  slide up
| \  slide down
| h  hammer-on
| p  pull-off
| ~  vibrato
| +  harmonic
| x  Mute note
| b  bend
| r  rest bend

Intro (played 6x)
Guitar 1
e|--------------------------------------------------------------------|
B|--------------------------------------------------------------------|
G|-------0-------0-------0-------0------2------2---------4-----4------|
D|-----4---4---4-------4---4---4------4------4-----4---4-----4-----4--|
A|---2-------2-------2-------2------5------5-----5---6-----6-----6----|
E|-0---------------0--------------------------------------------------|

Guitar 2
e|----------------------------------------------------|
B|----------------------------------------------------|
G|----------------------------------------------------|
D|----------------------------------------------------|
A|---------5h7---5h7-------------5h7---5h7------------|
E|----------------------------------------------------|

e|----------------------------------------------------|
B|----------------------------------------------------|
G|----------------------------------------------------|
D|----------------------------------------------------|
A|------------5------5---5-5-6------6------6-6--------|
E|----------------------------------------------------|

Main Riff
(Not really in this version but I'll add it for good measure)
Guitar 1
e|----------------------------------------------------|
B|----------------------------------------------------|
G|----------------------------------------------------|
D|-5---5---5--4---5---5---4---4---4-4-4---4---4-4-----|
A|-7---7---7--7---7---7---5---5---5-5-6---6---6-6-----|
E|----------------------------------------------------|

Guitar 2
e|------------------------------------------------------------|
B|------------------------------------------------------------|
G|------------------------------------------------------------|
D|------------------------------------7---7---7-7-------------|
A|5h7-xx5h7-xx5h7-x-5h7-xx5h7-xx5h7-x-5-xx5-xx5-5-6-xx6-xx6-6-|
E|0---xx0---xx0---x-0---xx0---xx0---x---xx--xx----7-xx7-xx7-7-|

Fast Riff (played 4x)
Guitar 1
e|-----------------------------------------|
B|-----------------------------------------|
G|-----------------------------------------|
D|------7-5h7p5--9-7h9p7-10----------------|
A|-7777----------------------77777-778-887-|
E|-----------------------------------------|

e|-----------------------------------------|
B|-----------------------------------------|
G|-----------------------------------------|
D|-----10-9h10p9--9--10--7-----------------|
A|-7777----------------------77777-778-887-|
E|-----------------------------------------|

Guitar 2
e|-----------------------------------------|
B|-----------------------------------------|
G|-----------------------------------------|
D|-----------------------------------------|
A|-----------------------------------------|
E|-----5-3h5p3---7--5--7--8--8--8----------|

e|-----------------------------------------|
B|-----------------------------------------|
G|-----------------------------------------|
D|-----------------------------------------|
A|-----------------------------------------|
E|-----8-7h8p7---7--8--5--5--5-------------|

Fast Riff Lower Pitch (played 4x)
Guitar 1
e|-----------------------------------------|
B|-----------------------------------------|
G|-----------------------------------------|
D|-----7---------9-------10----------------|
A|-----7---------9-------10---2--2--3--2--2|
E|-----5---------7-------8----0--0--1--0--0|

e|-----------------------------------------|
B|-----------------------------------------|
G|-----------------------------------------|
D|-----10---7----9---10--7-----------------|
A|-----10---7----9---10--7----2--2--3--2--2|
E|-----8----5----7---8---5----0--0--1--0--0|

Guitar 2
e|-----------------------------------------|
B|-----------------------------------------|
G|-----------------------------------------|
D|-----------------------------------------|
A|-----------------------------------------|
E|-00005-3h5p3--7-5-7--8---00000--001-110--|

e|-----------------------------------------|
B|-----------------------------------------|
G|-----------------------------------------|
D|-----------------------------------------|
A|-----3-2h3p2--2--3--0--------------------|
E|-0000--------------------00000--011-110--|

Main Riff repeats 2x

Solo intro (played 2x)
Guitar 1
e|----------------------------------------------------------------|
B|----------------------------------------------------------------|
G|------------------------0h2-2b-0-2------------------------------|
D|-------0------0h2--0h1h2-----------4p0-------4p0--4p0------4----|
A|--0h1h2--0h1h2-------------------------2---2----------2---2-----|
E|0----------------------------------------2--------------2-------|

Guitar 2
e|----------------------------------------------------------|
B|----------------------------------------------------------|
G|----------------------------------------------------------|
D|-4h5p4--4h5p4----4h5p4-4-4h5p4------5-5-4------5-5b-------|
A|------7------7--------7-------7-----------5--------4------|
E|----------------------------------------------------------|

!!Guitar 1 plays this 2x when solo begins then switches back to main riff!!
e|----------------------------------------------------------|
B|----------------------------------------------------------|
G|----------------------------------------------------------|
D|--9-9--7-7--9-9-----5-7-7b-5-7------------4h0--4h0---4----|
A|--7-7--5-5--7-7---7------------9------------------2-2-----|
E|--7-7--5-5--7-7-----------------10-7\2--5----------2------|

Solo
e|----------------------------------------------------------|
B|----------------------------------------------------------|
G|----------------------------------12-14b-14p12-11h12-11---|
D|---4/5—5/7—7/9—9/12—12h14-1414-14---------------------1212|
A|----------------------------------------------------------|
E|----------------------------------------------------------|

e|--------------------10-10br1212-10br121212-12-------------|
B|---15-------------12--------------------------------------|
G|-12--14br-14-14br-----------------------------------------|
D|----------------------------------------------------------|
A|----------------------------------------------------------|
E|----------------------------------------------------------|

e|-151412-151412-151412-151412-151412-15/19-19-19-----------|
B|----------------------------------------------------------|
G|----------------------------------------------------------|
D|----------------------------------------------------------|
A|----------------------------------------------------------|
E|----------------------------------------------------------|

e|-14-14-12p10---10-12\14-14-12/10---10-----10h14---10h14---|
B|------------12------------------12---12-12------12--------|
G|----------------------------------------------------------|
D|----------------------------------------------------------|
A|----------------------------------------------------------|
E|----------------------------------------------------------|

e|---10h14---10h14---10h14---10h14-14-14\19-19-17-----------|
B|-12------12------12------12-------------------------------|
G|----------------------------------------------------------|
D|----------------------------------------------------------|
A|----------------------------------------------------------|
E|----------------------------------------------------------|

e|----------------------------------------------------------|
B|----------------------------------------------------------|
G|-11-12-14-12-11-12-11h12---11-----------------------------|
D|-------------------------14---12h14-10h12-9h10---9--------|
A|-----------------------------------------------12--10h12--|
E|----------------------------------------------------------|

e|----------------------------------------------------------|
B|----------------------------------------------------------|
G|----------------------------------------------------------|
D|----------------------------------------------------------|
A|-9h10-9h10p9-9/7/5--5-7\9-9-7h9p7-7\5-5\4-4\2-2-2h4p2h4p2-|
E|------------------7---------------------------------------|

Guitars 1 & 2                     *let notes ring
e|-------------------------------0*-------------------------|
B|------------------------------0*--------------------------|
G|-----------------------------0*---------------------------|
D|-4--4----2--2---------------2*----------------------------|
A|-2-5-5-2-0-4-4-0-4--4------2*-----------------------------|
E|-----------------2-5-5-2--0*------------------------------|


Interlude

Guitar 2
e|----------------------------------------------------------|
B|----------------------------------------------------------|
G|----------------------------------------------------------|
D|----4----2-----2-----2-------4----2-----2-----------------|
A|---4---0---0-2---2----------4---0---0-2---2---------------|
E|-2-----------------0---0--2-----------------0-------------|

e|----------------------------------------------------------|
B|----------------------------------------------------------|
G|----------------------------------------------------------|
D|----4----2-----2-----2-------4----2-----2---2222----------|
A|---4---0---0-2---2----------4---0---0-2---2-----4-2-------|
E|-2-----------------0---0--2-------------------------------|

Some fills:
e|------------------------------------|
B|------------------------------------|
G|------------------------------------|
D|----4----2-----2---2222222----------|
A|---4---0---0-2---2--------4-2-0-----|
E|--2-----------------------------2-0-|

e|------------------------------------|
B|------------------------------------|
G|------------------------------------|
D|----4----2-----2-------2------------|
A|---4---0---0-2---2--2/4--4-2-0------|
E|-2-----------------------------0----|

e|------------------------------------|
B|------------------------------------|
G|------------------------------------|
D|----4----2-----2----2-0-------------|
A|---4---0---0-2---2------4-2-0-------|
E|-2----------------------------0-2---|

e|------------------------------------|
B|------------------------------------|
G|------------------------------------|
D|----4----2-----2--------------------|
A|---4---0---0-2---2--2-0-------------|
E|-2----------------------2-0-0-2-----|

e|------------------------------------|
B|------------------------------------|
G|------------------------------------|
D|----4----2-----2--------------------|
A|---4---0---0-2---2---2---2p0--------|
E|-2----------------------------------|

e|------------------------------------|
B|------------------------------------|
G|------------------------------------|
D|----4----2-----2---0/222-0/222------|
A|---4---0---0-2---2-------------4-2--|
E|-2----------------------------------|

e|---------------------------------------|
B|---------------------------------------|
G|---------------------------------------|
D|----4----2-----2---4-444-4-4-4-420-----|
A|---4---0---0-2---2----------------2-0--|
E|-2-----------------------------------0-|


Guitar 1
e|------------------------------------------|
B|-7~~-------7-5h7p4-2---2------------------|
G|-6~~-------6-4h6p5-2-4-2------------------|
D|---------------------4--------------------|
A|------------------------------------------|
E|------------------------------------------|

e|------------------------------------------|
B|-7~~-------7-5h7p4-2---2------------------|
G|-6~~-------6-4h6p5-2-4-2-2-2-1-1-1-2-4----|
D|---------------------4---4-4-2-2-2-4-6-4--|
A|---------------------------------------4--|
E|------------------------------------------|

e|------------------------------------------|
B|------------------------------------------|
G|-----2-4-4/6-4h6p4-2-4-4/6----------------|
D|-2-4-----------------------4-77-----------|
A|------------------------------------------|
E|------------------------------------------|

e|---------------------------------------------|
B|-7-5h7------7p5h7p4-2---2--------------------|
G|-6-4h6------6p4h6p5-2-4-2-2-2-2-1-1-1-1-12-4-|
D|----------------------4---4-4-4-2-2-2-2-24-6-|
A|---------------------------------------------|
E|---------------------------------------------|

e|---------------------------------------------|
B|-5555-555-5h7p5-2-333------------------------|
G|---------------------4-2-1h2p1-2/4-6---------|
D|-----------------------------------4---------|
A|---------------------------------------------|
E|---------------------------------------------|

e|---------------------------------------------|
B|-2~-0h2p0-2~------2----555555532-------------|
G|----------------22-4------------42-----------|
D|----------------------------------24---------|
A|---------------------------------------------|
E|---------------------------------------------|
            
Submit corrections


        Orion lessons Hard to play? Try these video lessons and learn fast Orion lessons
        
↑ Back to top | Tablatures and chords for acoustic guitar and electric guitar, ukulele, drums are parodies/interpretations of the original songs. You may use it for private study, scholarship, research or language learning purposes only