» » »

Rodrigo Y Gabriela - Diablo Rojo Tabs

Artists:  A B C D E F G H I J K L M N O P Q R S T U V W X Y Z # 

Diablo Rojo Tabs

(ver. 3) Click to play this song!
Rodrigo Y Gabriela
 Rating:
4.8/5 (26 votes)

 Diablo Rojo lessons Tabs too difficult? Try these video lessons and learn fast
 
                This is the first part, w/o the very fast part at the end

-------------------------------------------------------------------------------
Tuning: E,A,D,G,B,E
   Am		  C	        Dm	    E
e|---------------------------------------------------------------------------|
B|---------------------------------------------10-9--------------------------|
G|-----------------9----8--------7--10-9--------------10-9-------------------|
D|-7----10--7-9-10--------10-9-----------10-9--------------------------------|
A|---------------------------------------------------------------------------|
E|---------------------------------------------------------------------------|

   Am		  C	        Dm	    E
e|------------------------------|----------------------7---|----------------------7---|
B|------------------------------|----------------9-10------|----------------9-10------|
G|-----------------9----8-------|-7--10-9------------------|-7--10-9------9-----------|
D|-7----10--7-9-10--------10-9--|---------10-9-------------|---------10-9-------------|
A|------------------------------|--------------------------|--------------------------|
E|------------------------------|--------------------------|--------------------------|

   Am			      E			    E7
e|---------------------------------------------------------------------------------------------------|
B|---------------------------------------------------------------------------------------------------|
G|--------7--9--10-9--7-9-10-------7-9--10--9-------------7-9--10--9--7-10-9----------10--9--10--9---|
D|-7-9-10---------------------9-10------------------9-10----------------------10---777--77-77--77----|
A|---------------------------------------------------------------------------------------------------|
E|---------------------------------------------------------------------------------------------------|

   Am			      E			    E7
e|------------------------------------------------------------------------------------|
B|------------------------------------------------------------------------------------|
G|--------7--9--10-9--7-9-10-------7-9--10--9-------------10-7-8-9-----7--------------|
D|-7-9-10---------------------9-10------------------9-10-----------10-9--10-9-8-7-----|
A|------------------------------------------------------------------------------------|
E|------------------------------------------------------------------------------------|


e|-------10----10-------10-----10---------8-----8-------------------|
B|-----12----12-------12-----12---------8-----8--------8------8-----|
G|-12------12------10------10----10---9-----9--------9------9-------|
D|------------------------------------------------10-----10-----10--|
A|------------------------------------------------------------------|
E|------------------------------------------------------------------|


e|------7------7-----7-----7--------5-----5-----5-----5---------------------------------|
B|----9------9-----9-----9--------5-----5-----5-----5-----------------------------------|
G|-10-----10-----9-----7--------5-----5-----2-----2-------------------------------------|
D|--------------------------------------------------------------------------------------|
A|--------------------------------------------------------------------------------------|
E|--------------------------------------------------------------------------------------|
            
Submit corrections


        Diablo Rojo lessons Hard to play? Try these video lessons and learn fast Diablo Rojo lessons
        
↑ Back to top | Tablatures and chords for acoustic guitar and electric guitar, ukulele, drums are parodies/interpretations of the original songs. You may use it for private study, scholarship, research or language learning purposes only