» » »

Rocky Votolato - She Was Only In It For The Rain Tabs

Artists:  A B C D E F G H I J K L M N O P Q R S T U V W X Y Z # 

She Was Only In It For The Rain Tabs

(ver. 2) Click to play this song!
Rocky Votolato
 Rating:
4.5/5 (8 votes)
    She Was Only In It For The Rain lessons Tabs too difficult? Try these video lessons and learn fast
                rocky votolato
she was only in it for the rain
standard
mark sheary


   ---       ---       ---|
   -2-       -1-       ---|
   -3-       -1-       ---|
   -3-       -1-       -4-|
   -1-       ---       -4-|
C6 ---    Ab ---    F# -2-|


Intro -

-------------------------|
----2---2----------------|
----3---3----------------|
----3---3----------------|
-1--1--------------4-----|
-----------1---1-----4---|

background guitar

----------|
----------|
----------|
-8-8-8-6--|  over and over - palm mute
----------|
----------|

verse
-------------------------       ---------|
----2---2----------------       -1-1-1-1-|
----3---3----------------       -1-1-1-1-|
----3---3---------------- x 2   -1-1-1-1-|
-1--1--------------4-----       ---------|
-----------1---1-----4---       ---------|


chorus
-------------------------|
-2------------2--------1-|
-3------------3--------1-|
-3-----4------3--------1-|
-1-----4------1----------|
-------2-----------------|

-------|
-2-----|
-3-----|
-3---4-|
-1---4-|
-----2-|

enjoy, it took a while
            
Submit corrections

↑ Back to top | Tablatures and chords for acoustic guitar and electric guitar, ukulele, drums are parodies/interpretations of the original songs. You may use it for private study, scholarship, research or language learning purposes only