Home » R » Rocksteddy »

Rocksteddy - Super Nova Tabs

Artists:  A B C D E F G H I J K L M N O P Q R S T U V W X Y Z # 

Super Nova Tabs

(ver. 1) Click to play this song!
Rocksteddy
tab maker:Sean JAred R. LAstimoso(international school CDO)

hello to my band mates mao, rien, manny, jr, edward ,grant ,and ben


intro:repeat this part 2x
e|----------------------------------------|
B|----------------------------------------|
G|--4----------------4--------------------|
D|--4-4x-5-----7-----4-4x-55/77-----------|
A|--2----5-2x--7-2x--2----55/77-----------|
E|-------3-----5----------33/55-----------|
hear the song for better timing.. ok


verse:
i think the lead guitar will do this
i still did'nt get this part... i'm sorry
for rythym just timming it
e|-------------------|
B|-------------------|
G|-------------------|
D|---55/77-----------|
A|---55/77-----------|
E|---33/55-----------|

refrain:
e|------------------------|
B|------------------------|
G|-4-----6----7-----------|
D|-4-6X--6-6X-7-----------|
A|-2-----4----5-----------|
E|------------------------|



chorus:repeat this part 
e|-----------------------------|
B|-----------------------------|
G|-7---------------7-----------|
D|-7-4X-7----5-----7-2X-7------|
A|-5----7-4X-5-4X--5----7-2X---|
E|------5----3----------5------|



ADLIB:
I DONT KNOW FOR THE LEAD!
FOR THE RYTHYM:
e|-----------------------------|
B|-----------------------------|
G|-7---------------7-----------|
D|-7----7----5-----7----7------|
A|-5----7----5-----5----7------|
E|------5----3----------5------|

e|------------------------|
B|------------------------|
G|-4-----6----7-----------|
D|-4-----6----7-----------|
A|-2-----4----5-----------|
E|------------------------|
LISTEN TO THE SONG FOR A GOOD TIMING 
            
Submit corrections

↑ Back to top | Tablatures and chords for acoustic guitar and electric guitar, ukulele, drums are parodies/interpretations of the original songs. You may use it for private study, scholarship, research or language learning purposes only