» » »

Rocksteddy - Magpakailanman Tabs

Artists:  A B C D E F G H I J K L M N O P Q R S T U V W X Y Z # 

Magpakailanman Tabs

(ver. 3) Click to play this song!
Rocksteddy
 Rating:
4/5 (4 votes)

 Magpakailanman lessons Tabs too difficult? Try these video lessons and learn fast
 
                Magpakailanman - Rocksteddy

For: April Valdez

e---------------------------------------------------------------------------------|     
b-----15/17-17\15-14-15-17-17--15-14-14h15-14-12----------------------------------|
g-----------------------------------------------14-14/16--------------------------|
D--14----------------------------------------------------16\14-14-16-14-----------|
A---------------------------------------------------------------------------------|
E---------------------------------------------------------------------------------|

e---------------------------------------------------------------14h16-17-17/19-17-|
b---------------------------------------------------15-14-15-14-------------------|
g---------------------------------14----------14-16-------------------------------|
D--12p11h12-14-----------------------16-14-16-------------------------------------|
A--------------12-14-14/16--14----------------------------------------------------|
E------------------------------17-------------------------------------------------|
            
Submit corrections


        Magpakailanman lessons Hard to play? Try these video lessons and learn fast Magpakailanman lessons
        
↑ Back to top | Tablatures and chords for acoustic guitar and electric guitar, ukulele, drums are parodies/interpretations of the original songs. You may use it for private study, scholarship, research or language learning purposes only