» » »

Rocksteddy - Leslie Tabs

Artists:  A B C D E F G H I J K L M N O P Q R S T U V W X Y Z # 

Leslie Tabs

(ver. 2) Click to play this song!
Rocksteddy
 Rating:
4/5 (4 votes)

 Leslie lessons Tabs too difficult? Try these video lessons and learn fast
 
                SONG TITLE     : Leslie
ARTIST         : Rocksteddy
ALBUM          : Ayos lang ako
DISCRIPTION    : Bisaya ako, Tomboy o bakla ba ang ibig sabihin
                 nang LESLIE... Just leave a comment..!!!


INTRO:
      Play this Chords:
                       --A---F#m---G---E----


e|----------------12------9------------------12---9~~~~~~-----|
B|----12\-10------10------10-----12--12-----------------------|
G|------------------------------------------------------------|
D|------------------------------------------------------------|
A|------------------------------------------------------------|
E|------------------------------------------------------------|


e|---0-------0------0-------0------0-----0--0---------0--------|
B|---12--12-----12--10--10-----10--9--9----/7---7~~---7~~~~~~~-|
G|-------------------------------------------------------------|
D|-------------------------------------------------------------|
A|-------------------------------------------------------------|
E|-------------------------------------------------------------|

    AH
e|----------------------------------------------------------|
B|----------------------------------------------------------|
G|--2==/===/6--6---------------------------------------6----|
D|-----------------4---7~~~~~--------4/==7---9----4/===7----|
A|----------------------------------------------------------|
E|----------------------------------------------------------|


e|--------------------------------------------------------------|
B|--------------------------------------------------------------|
G|----------4-------------6--------------7--------------9-------|
D|--4/==6---------6/==7----------7/==9---------9/==11-------11--|
A|--------------------------------------------------------------|
E|--------------------------------------------------------------|


e|---------------------------------------------------|
B|---------------------------------------------------|
G|--9~~~~~~~~~~--------------------------------------|
D|---------------------------------------------------|
A|---------------------------------------------------|
E|---------------------------------------------------|


VESRE:

A               F#m
Nung unang magkita
                    G
Talagang trip na kita
            E
Laging tulala
            A
Tinititigan ka
               F#m
Makalipas ang ilang buwan
                 G
Nainluv na ako sayo
                E
Di na pinaliban pa...nagtapat ngunit


REFRAIN:

A
Nagalit ka nang sabihin ko
    F#m
Na mahal kita ngunit sabi mo'y
 G
Hindi mo ako gusto
       E
dahil hindi tayo talo


CHORUS:

A
Ang bobo ko talaga
F#m
Di ko nahalata
D
Leslie sya, ako tanga,
   E
Pinaasa lang ako sa wala
    A
Ang olats ko talaga
F#m
Di na ako nadala
D
Ang trip nya cheat pala
   E
wala tuloy akong napala


VERSE:

A                 F#m
Nagpadala sa haka-haka
                    G
Akala ko tuloy tayo na
               E
Ngunit hindi pala
            A
Meron kang iba
                       F#m
Dihins ko pa alam nung una
                        G
ngunit ako'y nagtanong sayo
               E
Ano bang meron xa na wala sa akin


REFRAIN:

   A
At Nagalit ka nang sabihin ko
    F#m
Na mahal kita ngunit sabi mo'y
 G
Hindi mo ako gusto
       E
dahil hindi tayo talo


CHORUS:

A
Ang bobo ko talaga
F#m
Di ko nahalata
D
Leslie sya, ako tanga,
   E
Pinaasa lang ako sa wala
    A
Ang olats ko talaga
F#m
Di na ako nadala
D
Ang trip nya cheat pala
   E
wala tuloy akong napala


SOLO:
     A----F#m--D----E----


e|------------12------9--------------12----9^~~~~~------9~~-|
B|----10-------------------12--12---------------------------|
G|----------------------------------------------------------|
D|----------------------------------------------------------|
A|----------------------------------------------------------|
E|----------------------------------------------------------|


e|---\--10-9------------------------------------------------|
B|-----------10---------------------------------------------|
G|--------------9-------------------------------------------|
D|-----------------12-11-12-11-------------9~~-/11---9~~----|
A|-----------------------------12-11-h12--------------------|
E|----------------------------------------------------------|


e|------------------------------------------------------|
B|-------------------------/10---9^~~~------7^~~7^~~~---|
G|------------9~~~~~~-----------------------------------|
D|-7--9/-11---------------------------------------------|
A|------------------------------------------------------|
E|------------------------------------------------------|


e|-----------------------------------------------------|
B|-/15--14^~~~~----12^~~~--------12b^=======r12--12~~~-|
G|-----------------------------------------------------|
D|-----------------------------------------------------|
A|-----------------------------------------------------|
E|-----------------------------------------------------|


e|-----------------------------------|
B|-----------------------------------|
G|----9~~---9~~~~~-------------------|
D|-----------------------------------|
A|-----------------------------------|
E|-----------------------------------|

         T
e|-12h16-19-16p12-----------------------------------------|
B|----------------14--------------12---15------15------15-|
G|-------------------13--------13----------13------13-----|
D|----------------------14--12----------------------------|
A|--------------------------------------------------------|
E|--------------------------------------------------------|


e|--15/==17~~~~~~~~~~~~~~~~--------------------------|
B|---------------------------------------------------|
G|---------------------------------------------------|
D|---------------------------------------------------|
A|---------------------------------------------------|
E|---------------------------------------------------|


(Chord pattern: A-F#m-G-E)

Wala akong kaalam-alam
At wala rin akong kamuang-muang
At ni minsan di sumagi sa aking isip
o kahit na sa panaginip
ngunit ako ito ay nainip
kaya ang puso ay pinilit gisingin subalit
nang akin sabihin sayo
ang lahat ay nagbago naglaho


REFRAIN:

A
Nagalit ka nang sabihin ko
    F#m
Na mahal kita ngunit sabi mo'y
 G
Hindi mo ako gusto
       E
dahil hindi tayo talo


CHORUS:

A
Ang bobo ko talaga
F#m
Di ko nahalata
D
Leslie sya, ako tanga,
   E
Pinaasa lang ako sa wala
    A
Ang olats ko talaga
F#m
Di na ako nadala
D
Ang trip nya cheat pala
   E
wala tuloy akong napala


OUTRO:
      A-F#m-D-E

(ang bobo ko talaga)
ang bobo ko talaga
                    A(hold)
ang bobo, ang olats!


Tablature Legend:

  h      -- hammer on
  p      -- pull off
  b      -- bend
  r      -- bend release
  ===    -- bend hold or maintain
  ^      -- bend a little, or dec/increase the bend slightly
  w      -- Whole (Bend, Ring Etc....)
  /,\    -- slide (toward, forward)
  ~      -- let ring
  x      -- Muted string then pick it, Or Scratch
  AH     -- Artificial Harmonic
  TH     -- Tap Harmonic
  NH     -- Natural Harmonic
  PM     -- Palm Muted
  T      -- Tap
  t      -- Use your picking finger to create pull-off's, hammer-on's
  Tr     -- Trill


                   Calinan Davao City, Phillipines...
  warcraft name
      GG client : IniTiaL_D_26
                : AVANT-_-GARDE
                  Bobo ako sa DOTA eh.. Hehe..

           Salamat kay, Rodel F. Fariñas (OlongaPO)
           Kopya ko lang lyrics mo..!!! Hehe.. Tamad ako eh!!
            
Submit corrections


        Leslie lessons Hard to play? Try these video lessons and learn fast Leslie lessons
        
↑ Back to top | Tablatures and chords for acoustic guitar and electric guitar, ukulele, drums are parodies/interpretations of the original songs. You may use it for private study, scholarship, research or language learning purposes only