» » »

Rocksteddy - Boy Kulot Tabs

Artists:  A B C D E F G H I J K L M N O P Q R S T U V W X Y Z # 

Boy Kulot Tabs

(ver. 1) Click to play this song!
Rocksteddy
 Rating:
4/5 (4 votes)

 Boy Kulot lessons Tabs too difficult? Try these video lessons and learn fast
 
                
Song Title       : Boy Kulot
Artist           : Rocksteddy
                 : Kayo na ang bahala sa strumming at lyrics..
                   Tamad ako eh'.. hehe..

INTRO:

     A
e|----------------------------------------------|
B|----------------------------------------------|
G|----------------------------------------------|
D|---7--7---------7--7-----7--7---7--7--7---7//-|
A|---7--7----7----7--7-----7--7---7--7--7-------|
E|---5--5----5----5--5-----5--5---5--5--5-------|

Do Chords: --D---G---Bm---A

e|---------------------17-----------------15--14--------------|
B|--15-------17-------------------15--17----------17--15~-15~-|
G|-------14--------14---------14------------------------------|(3x)
D|------------------------------------------------------------|
A|------------------------------------------------------------|
E|------------------------------------------------------------|

e|-------------------------------------------------------------|
B|---------15--15----------------------------------------------|
G|------------------9--11-12~~---------11--12--11--------------|
D|-12--12------------------------------------------14--12~~~---|
A|-------------------------------------------------------------|
E|-------------------------------------------------------------|

VERSE:
      Kayo na ang bahala sa mga (quick Palm-mute). (':') hehe..

    D                    G                     Bm
e|--------------------------------------------------------|
B|--------------------------------------------------------|
G|--------------------------------------------------------|
D|--7--------------------5---------9--7--6-----9----------|
A|--5--------------------5---------7--5--4--7--9----------|
E|-----------------------3------------------5--7----------|
    Minsan ako ay nag punta mall...

    Bm                          A
e|--------------------------------------------------------|
B|--------------------------------------------------------|
G|--------------------------------------------------------|
D|--9---------------------------7-------------------------|
A|--9---------------------------7----------4/5--4/5--4/5--|
E|--7---------------------------5----------2/3--2/3--2/3--|
    Nakita ko ang tropa kung si BOY KULOT.....

(Repeat 1x) kayo na bahala sa ibang parts dito sa VERSE...

REFRAIN:

    G                A
e|--------------------------------|
B|--------------------------------|
G|--------------------------------|
D|--5----------------7------------|(repeat)
A|--5----------------7------------|(  3x  )
E|--3----------------5------------|
    Dali dali kung tinawag..

    D
e|--------------------------------|
B|--------------------------------|
G|--------------------------------|
D|--5------5-----5--5--5--7-------|
A|--5------5-----5--5--5--5-------|
E|--3------3-----3--3--3----------|
    Hoy    Hoy   Syuta ko yan..

CHORUS:

    D                  G                     Bm
e|----------------------------------------------|
B|----------------------------------------------|
G|----------------------------------------------|
D|--7------------------5---------9--7--6-----9--|
A|--5------------------5---------7--5--4--7--9--|
E|---------------------3------------------5--7--|
    Hoy Kulot Bakit mo sinulot.. Ang syuta kung harot...

    Bm                 A
e|--------------------------------------------|
B|--------------------------------------------|
G|--------------------------------------------|
D|--9------------------7----------------------|
A|--9------------------7-------4/5--4/5--4/5--|
E|--7------------------5-------2/3--2/3--2/3--|

 (Repeat CHORUS 1x)

FILL:

    D                        G
    PMPM    PM     PM        PMPM    PM     PM
e|-----------------------------------------------|
B|-----------------------------------------------|
G|--7-7-7---7-7----7-7---------------------------|
D|--7-7-7---7-7----7-7-------5-5-5---5-5----5-5--|
A|--5-5-5---5-5----5-5-------5-5-5---5-5----5-5--|
E|---------------------------3-3-3---3-3----3-3--|

Then:

    Bm                       A
    PMPM    PM     PM
e|--------------------------------------------------14-15-17---|
B|----------------------------------------14h15h17-------------|
G|---------------------------------14p12-----------------------|
D|--9-9-9---9-9----9-9-------7--\------------------------------|
A|--9-9-9---9-9----9-9-------7--\------------------------------|
E|--7-7-7---7-7----7-7-------5--\------------------------------|

REPEAT:
       VERSE     :
       REFRAIN   :
       CHORUS    :

SOLO:

    D                                   G
e|--------------------------------------------------------------|
B|--15--\-------------------------------------------------------|
G|----------11---12---12/14---12---11---9---7----9/11--9~~~-----|
D|--------------------------------------------------------------|
A|--------------------------------------------------------------|
E|--------------------------------------------------------------|

       Bm                              A
e|-------------------------------------------------------|
B|-------------------------------------------------------|
G|--7h9-/11---12---12/14---12---11~---12/14---12---11~---|
D|-------------------------------------------------------|
A|-------------------------------------------------------|
E|-------------------------------------------------------|

                    D(Break)..
e|---------------------------------------------14-15-17-15-14-|
B|------------------------------------14-15-17----------------|
G|---------------------------12-14-16-------------------------|
D|-11h12-14--12~~---12-14-16----------------------------------|
A|------------------------------------------------------------|
E|------------------------------------------------------------|

                             G
e|---------------------------------------------------------------|
B|-17-15-14------------------17b^===========17br=17br=17br=17br\-|
G|----------16-14-12---------------------------------------------|
D|-------------------16-14-12------------------------------------|
A|---------------------------------------------------------------|
E|---------------------------------------------------------------|

    B(Break)..
e|-/12-17-14----------14-17-14----------------14h17-t22p17p14--------|
B|-----------15----15----------15----------15-----------------15-----|
G|--------------14----------------14----14-----------------------14--|
D|-----------------------------------16------------------------------|
A|-------------------------------------------------------------------|
E|-------------------------------------------------------------------|

                   A
e|----14h17-17/19-19b^^^^=======19br=19br-19br-19br====19b~~\------|
B|-15--------------------------------------------------------------|
G|-----------------------------------------------------------------|
D|-----------------------------------------------------------------|
A|-----------------------------------------------------------------|
E|-----------------------------------------------------------------|

REPEAT:
       FILL     : 3x |---D---G---Bm----A-----|

Then:

    A
    Legato Slide.......................
e|----------------------------------------------|
B|----------------------------------------------|
G|----------------------------------------------|
D|----------------------------------------------|
A|----------------------------------------------|
E|--5==/==/==/==/==/==/==/==/=/=15=15/=/17------|

REPEAT:
       CHORUS    : 4x

Then the Ending: A-----D---- Chord..

e|---------------------------------------------------------|
B|---------------------------------------------------------|
G|-----------------------------------7~~~~-----------------|
D|--7-7------7-7------7-7------------7~~~~-----------------|
A|--7-7------7-7------7-7------------5~~~~-----------------|
E|--5-5------5-5------5-5----------------------------------|

Time: 1:08pm - 5:10pm .. November 25, 2008 (nakakapagud.. hooo..)

Tablature Legend:

  h      -- hammer on
  p      -- pull off
  b      -- bend
  r      -- bend release
  ===    -- bend hold or maintain
  ^      -- bend a little, or increase the bend slightly
  <>     -- quick (ring, bend, harmonics etc..)
  /,\    -- slide (toward, forward)
  ~      -- let ring
  x      -- Muted string then pluck it
  AH     -- Artificial Harmonic
  TP     -- Tap Harmonic
  PH     -- Pitch Harmonic
  NH     -- Natural Harmonic
  PM     -- Palm Muted
  T      -- Tap
  t      -- Use your picking hand to create pull-off's and hammer-on's
  Tr     -- Trill

                Calinan Davao City, Phillipines...
              : Para to kay kulot... Hehehe... DOTA name nya.. Sequel..
WCFT(DOTA)name: IniTiaL D
              : Sana magustuhan nyo GAWA ko.. Hehe.. ENJOYYYYY...
              : Thank God 20 na ako.. Nov. 26, 2008..
            
Submit corrections


        Boy Kulot lessons Hard to play? Try these video lessons and learn fast Boy Kulot lessons
        
↑ Back to top | Tablatures and chords for acoustic guitar and electric guitar, ukulele, drums are parodies/interpretations of the original songs. You may use it for private study, scholarship, research or language learning purposes only