» » »

Rocksteddy - Blue Jeans Tabs

Artists:  A B C D E F G H I J K L M N O P Q R S T U V W X Y Z # 

Blue Jeans Tabs

(ver. 1) Click to play this song!
Rocksteddy
 Rating:
4.5/5 (32 votes)

 Blue Jeans lessons Tabs too difficult? Try these video lessons and learn fast
 
                Title       : Blue Jeans
Artist      : RockSteddy


Time Elapsed: 8:40 PM - 8:55 PM

:::::::::::::::::::::READ FIRST:::::::::::::::::::::::::::::

ROGEM --> Medyo mahirap 2ng song na 2 lalo na ung mga pull-offs
	  pati mga mabibilis na picking .. ..
	  ung sa bass n2 bago mag verse II tama un sabayan nyo 
          lang sa audio player nyo at ung mga pull-offs tama din 
          un pakingan nyo din sa audio player sa tingin ko 90% 
          accurate tong tab na2 kayo na bahala mag rate salamat!!

ROGEM --> Dedicate ko 2 sa mga mga taga C.A.S sa EARIST pati na 
   	  din sa lahat ng B.S.A.P student (.+.) .. ..

Tuning: E A D G B e

INTRO
e|---------------------------------------------------------------|
B|---------------------------------------------------------------|
G|----------7\0---------------7\0---------------7\0--------------|
D|--8-8--7--7\0-------8-8--7--7\0-------8-8--7--7\0--------------|
A|--8-8--7--5\0-------8-8--7--5\0-------8-8--7--5\0--------------|
E|--6-6--5------------6-6--5------------6-6--5-------------------|

e|------------8-8-8-------------8-8-8----------------------------|
B|------------8-8-8-------------8-8-8----------------------------|
G|---------------------------------------------------------------|
D|---------------------------------------------------------------|
A|---------3------------------3----------------------------------|
E|--1--0---------------1--0--------------------------------------|

e|----------8----------------------------------------------------|
B|-8s10-8-10---10-8----------------------------------------------|
G|-----------------9-9s7-5---------------------------------------|
D|---------------------------------------------------------------|
A|---------------------------------------------------------------|
E|---------------------------------------------------------------|

Verse 1

e|---------------------------------------------------------------|
B|---------------------------------------------------------------|
G|------------------55555555---33333333--------------------------|
D|-33333333---------55555555---33333333-----------33333333-------|
A|-33333333---------33333333---11111111-----------33333333-------|
E|-11111111---------------------------------------11111111-------|
  nandirito kami ngayon       nagsusumikap sa araw araw 

e|---------------------------------------------------------------|
B|---------------------------------------------------------------|
G|--------------------------------7\0----------------------------|
D|--88888---------777-------------7\0----------------------------|
A|--88888---------777-------------5\0----------------------------|
E|--66666---------555--------------------------------------------|
   kayod ng kayod hangang sa mapagod  

e|---------------------------------------------------------------|
B|---------------------------------------------------------------|
G|--------------55555555-----------------------------------------|
D|--55555555----55555555-----------------------------------------|
A|--55555555----33333333-----------------------------------------|
E|--33333333-----------------------------------------------------|
    Maagapan ang natatanaw

e|---------------------------------------------------------------|
B|---------------------------------------------------------------|
G|------------------55555555----33333333-------------------------|
D|-33333333---------55555555----33333333----------33333333-------|
A|-33333333---------33333333----11111111----------33333333-------|
E|-11111111---------------------------------------11111111-------|
  Paminsan-minsan ay naglalaro  Pag-ibig lang ang di ginagawang biro

e|---------------------------------------------------------------|
B|---------------------------------------------------------------|
G|-----7-7-7\0-----------------5-5-5\0---------------------------|
D|-----7-7-7\0-----------------5-5-5\0---------------------------|
A|-----5-5-5\0-----------------3-3-3\0---------------------------|
E|---------------------------------------------------------------|
  Kung sa tuksuhan lang hindi pahuhuli  

e|---------------------------------------------------------------|
B|---------------------------------------------------------------|
G|--------------55555555-----------------------------------------|
D|--55555555----55555555-----------------------------------------|
A|--55555555----33333333-----------------------------------------|
E|--33333333-----------------------------------------------------|
   kinabuasan ay gina-gabi

e|---------------------------------------------------------------|
B|---------------------------------------------------------------|
G|------------------55555555----33333333-------------------------|
D|-33333333---------55555555----33333333----------33333333-------|
A|-33333333---------33333333----11111111----------33333333-------|
E|-11111111---------------------------------------11111111-------|
   Paminsan-minsan ay nabibigo  Sakit sa puso ay hindi maitago

e|---------------------------------------------------------------|
B|---------------------------------------------------------------|
G|-----7-7-7\0-----------------5-5-5\0---------------------------|
D|-----7-7-7\0-----------------5-5-5\0---------------------------|
A|-----5-5-5\0-----------------3-3-3\0---------------------------|
E|---------------------------------------------------------------|
   Ngunit tuloy pa rin hindi pinapansin

e|---------------------------------------------------------------|
B|---------------------------------------------------------------|
G|--------------5x5~~~-------------------------------------------|
D|--55555555----5x5~~~-------------------------------------------|
A|--55555555----3x3~~~-------------------------------------------|
E|--33333333-----------------------------------------------------|
    Ang kabuhayan ang intindihin


BASS
G|--------------|
D|--------------| 12x to part n2 tapos lead
A|--------------|
E|--6-6-3-5-6---|


LEAD
e|---------------------------------------------------------------|
B|---------------------------------------------------------------|
G|---------------------------------------------------------------|
D|---8p6p5--6p5p3------------------------------------------------|
A|-----------------8p6p5--6p5p3-8-8-8--6-6-6--5-5-5---3-3-3------|
E|---------------------------------------------------------------|


Verse II
e|---------------------------------------------------------------|
B|---------------------------------------------------------------|
G|---------------------------------------------------------------|
D|-88888888------------------------77777777----------------------|
A|-88888888------------------------77777777----------------------|
E|-66666666------------------------55555555----------------------|
  Blue jeans     Alam mo ba ano ang ibig sabihin

e|---------------------------------------------------------------|
B|---------------------------------------------------------------|
G|---------------------------------------------------------------|
D|-55555555---------------33333333-------------------------------|
A|-55555555---------------33333333-------------------------------|
E|-33333333---------------11111111-------------------------------|
   Ng ating pagsisikap sa ‘skwela

e|---------------------------------------------------------------|
B|---------------------------------------------------------------|
G|---------------------------------------------------------------|
D|-88888888------------------------77777777----------------------|
A|-88888888------------------------77777777----------------------|
E|-66666666------------------------55555555----------------------|
  Blue jeans     Di na lang iwanan ang pag-aaral

e|---------------------------------------------------------------|
B|---------------------------------------------------------------|
G|---------------------------------------------------------------|
D|-55555555---------------33333333-------------------------------|
A|-55555555---------------33333333-------------------------------|
E|-33333333---------------11111111-------------------------------|
   At sama-sama tayong magsaya

e|---------------------------------------------------------------|
B|---------------------------------------------------------------|
G|--8~~~~~-------------------------------------------------------|
D|--8~~~~~-------------------------------------------------------|
A|--6~~~~~-------------------------------------------------------|
E|---------------------------------------------------------------|
   Ngunit ang kabataan daw ay kayamanan

e|---------------------------------------------------------------|
B|---------------------------------------------------------------|
G|--5~~~~~-------------------------------------------------------|
D|--5~~~~~-------------------------------------------------------|
A|--3~~~~~-------------------------------------------------------|
E|---------------------------------------------------------------|
   Huwag daw basta’t itapon at pabayaan

e|---------------------------------------------------------------|
B|---------------------------------------------------------------|
G|--7~~~~~------------------10~~~~~~-----------------------------|
D|--7~~~~~------------------10~~~~~~-----------------------------|
A|--5~~~~~-------------------8~~~~~~-----------------------------|
E|---------------------------------------------------------------|
   Kaya magsikap tayo habang may panahon

e|---------------------------------------------------------------|
B|---------------------------------------------------------------|
G|--8~~~~~-------------------------------------------------------|
D|--8~~~~~------------------3~~~~~~------------------------------|
A|--6~~~~~------------------3~~~~~~------------------------------|
E|--------------------------1~~~~~~------------------------------|
   Mag-aral at mag-ipon tayo ng karunungan


BASS
G|-------------------------------------|
D|-------------------------------------|
A|-0-8---8-6---6-5---5-3---------------|
E|-------------------------------------|


Verse III
e|---------------------------------------------------------------|
B|---------------------------------------------------------------|
G|---------------------------------------------------------------|
D|-88888888------------------------77777777----------------------|
A|-88888888------------------------77777777----------------------|
E|-66666666------------------------55555555----------------------|
  Blue jeans     Sige-sige-sige kayod sa ‘skwela

e|---------------------------------------------------------------|
B|---------------------------------------------------------------|
G|---------------------------------------------------------------|
D|-55555555---------------33333333-------------------------------|
A|-55555555---------------33333333-------------------------------|
E|-33333333---------------11111111-------------------------------|
   At balang araw makikita n’yo

e|---------------------------------------------------------------|
B|---------------------------------------------------------------|
G|---------------------------------------------------------------|
D|-88888888------------------------77777777----------------------|
A|-88888888------------------------77777777----------------------|
E|-66666666------------------------55555555----------------------|
  Blue jeans      Pagkatapos ng iyong paghihirap

e|---------------------------------------------------------------|
B|---------------------------------------------------------------|
G|---------------------------------------------------------------|
D|-55555555---------------33333333-------------------------------|
A|-55555555---------------33333333-------------------------------|
E|-33333333---------------11111111-------------------------------|
   Di ka rin makakahanap ng trabaho


e|---------------------------------------------------------------|
B|---------------------------------------------------------------|
G|--8~~~~~-------------------------------------------------------|
D|--8~~~~~-------------------------------------------------------|
A|--6~~~~~-------------------------------------------------------|
E|---------------------------------------------------------------|
   Sino ba silang nagmamarunong sa buhay

e|---------------------------------------------------------------|
B|---------------------------------------------------------------|
G|--5~~~~~-------------------------------------------------------|
D|--5~~~~~-------------------------------------------------------|
A|--3~~~~~-------------------------------------------------------|
E|---------------------------------------------------------------|
   Huwag sana silang makialam sa ‘king buhay

e|---------------------------------------------------------------|
B|---------------------------------------------------------------|
G|--7~~~~~------------------10~~~~~~-----------------------------|
D|--7~~~~~------------------10~~~~~~-----------------------------|
A|--5~~~~~-------------------8~~~~~~-----------------------------|
E|---------------------------------------------------------------|
   Anong kinabukasan pagkatapos sa eskwela

e|---------------------------------------------------------------|
B|---------------------------------------------------------------|
G|--8~~~~~-------------------------------------------------------|
D|--8~~~~~------------------3~~~~~~------------------------------|
A|--6~~~~~------------------3~~~~~~------------------------------|
E|--------------------------1~~~~~~------------------------------|
   Huwag ng isipin at baka mangamba ka pa


CHORUS
e|---------------------------------------------------------------|
B|---------------------------------------------------------------|
G|--88888888---------------------77777777------------------------|
D|--88888888---------------------77777777------------------------|
A|--66666666---------------------55555555------------------------|
E|---------------------------------------------------------------|
  Kay tagal-tagal ko ng nag-aaral

e|---------------------------------------------------------------|
B|---------------------------------------------------------------|
G|--55555555---------------------3-------------------------------|
D|--55555555---------------------3-------------------------------|
A|--33333333---------------------1-------------------------------|
E|---------------------------------------------------------------|
  Tingnan mo kupas na ang aking maong, (yeah!)

e|---------------------------------------------------------------|
B|---------------------------------------------------------------|
G|--88888888---------------------77777777------------------------|
D|--88888888---------------------77777777------------------------|
A|--66666666---------------------55555555------------------------|
E|---------------------------------------------------------------|
  Kung akala mo ako ay natuto na

e|---------------------------------------------------------------|
B|---------------------------------------------------------------|
G|---------------------------------------------------------------|
D|--55555555-----------------------------------------------------|
A|--55555555-----------------------------------------------------|
E|--33333333-----------------------------------------------------|
  Hindi pa rin

ROGEM -->> REPEAT CHORUS

e|---------------------------------------------------------------|
B|---------------------------------------------------------------|
G|---------------------------------------------------------------|
D|-1010101010101010-----------------99999999---------------------|
A|-1010101010101010-----------------99999999---------------------|
E|--8-8-8-8-8-8-8-8-----------------77777777---------------------|
   Blue jeans     Sige-sige-sige kayod sa ‘skwela

e|---------------------------------------------------------------|
B|---------------------------------------------------------------|
G|---------------------------------------------------------------|
D|-77777777-------------------------55555555---------------------|
A|-77777777-------------------------55555555---------------------|
E|-55555555-------------------------33333333---------------------|
   At balang araw makikita n’yo

e|---------------------------------------------------------------|
B|---------------------------------------------------------------|
G|---------------------------------------------------------------|
D|-1010101010101010-----------------99999999---------------------|
A|-1010101010101010-----------------99999999---------------------|
E|--8-8-8-8-8-8-8-8-----------------77777777---------------------|
   Blue jeans      Di na lang iwanan ang pag-aaral

e|---------------------------------------------------------------|
B|---------------------------------------------------------------|
G|---------------------------------------------------------------|
D|-77777777-------------------------55555555---------------------|
A|-77777777-------------------------55555555---------------------|
E|-55555555-------------------------33333333---------------------|
   At sama-sama tayong magsaya
e|---------------------------------------------------------------|
B|---------------------------------------------------------------|
G|---------------------------------------------------------------|
D|-1010101010101010-----------------99999999---------------------|
A|-1010101010101010-----------------99999999---------------------|
E|--8-8-8-8-8-8-8-8-----------------77777777---------------------|
   Blue jeans      Pagkatapos ng iyong paghihirap

e|---------------------------------------------------------------|
B|---------------------------------------------------------------|
G|---------------------------------------------------------------|
D|-77777777-------------------------55555555---------------------|
A|-77777777-------------------------55555555---------------------|
E|-55555555-------------------------33333333---------------------|
   Di ka rin makakahanap ng trabaho


e|---------------------------------------------------------------|
B|---------------------------------------------------------------|
G|-10~~~~~-------------------------------------------------------|
D|-10-~~~~-------------------------------------------------------|
A|--8~~~~~-------------------------------------------------------|
E|---------------------------------------------------------------|
   Sino ba silang nagmamarunong sa buhay

e|---------------------------------------------------------------|
B|---------------------------------------------------------------|
G|--7~~~~~-------------------------------------------------------|
D|--7~~~~~-------------------------------------------------------|
A|--5~~~~~-------------------------------------------------------|
E|---------------------------------------------------------------|
   Huwag sana silang makialam sa ‘king buhay

e|---------------------------------------------------------------|
B|---------------------------------------------------------------|
G|--4~~~~~-------------------7~~~~~~-----------------------------|
D|--4~~~~~-------------------7~~~~~~-----------------------------|
A|--2~~~~~-------------------5~~~~~~-----------------------------|
E|---------------------------------------------------------------|
   Anong kinabukasan pagkatapos sa eskwela

e|---------------------------------------------------------------|
B|---------------------------------------------------------------|
G|-10~~~~~-------------------------------------------------------|
D|-10~~~~~------------------5~~~~~~------------------------------|
A|--8~~~~~------------------5~~~~~~------------------------------|
E|--------------------------3~~~~~~------------------------------|
   Huwag ng isipin at baka mangamba ka pa


ROGEM --> ung bass medyo mabilis yan  
          sabayan nyo sa audio player
	  para makuha nyo

BASS
G|----------------------------------------------------------|
D|----------------------------------------------------------|
A|----------------5-6-8-8---8-8-6-5-------------------------|2x
E|--8-8-5-6-8-8----------------------8----------------------|


ROGEM --> ganun pa din sabayan nyo sa
          cd magkasabay ung lead and bass ..I..
          medyo mabilis yan pero tama yan!  

  bass
G|---------------------------------------------------------------|
D|---------------------------------------------------------------|
A|----------------5-6-8-8---8-8-6-5------------------------------|
E|--8-8-5-6-8-8----------------------8---------------------------|
 |
 | Lead 
e|-----------------------3-5s6-8---------------------------------|
B|--------------3-3-4-6------------------------------------------|
G|-3s5-5-5-3-5---------------------------------------------------|
D|---------------------------------------------------------------|
A|---------------------------------------------------------------|
E|---------------------------------------------------------------|
 
  base
G|---------------------------------------------------------------|
D|---------------------------------------------------------------|
A|----------------5-6-8-8---8-8-6-5------------------------------|
E|--8-8-5-6-8-8----------------------8---------------------------|
 |
 | Lead
e|--0/11--10-----8--------11-11-13-14----------------------------|
B|-----------11--------13----------------------------------------|
G|---------------------------------------------------------------|
D|---------------------------------------------------------------|
A|---------------------------------------------------------------|
E|---------------------------------------------------------------|


  
e|---------------------------------------------------------------|
B|---------------------------------------------------------------|
G|---------------------------------------------------------------|
D|-1010101010101010-----------------99999999---------------------|
A|-1010101010101010-----------------99999999---------------------|
E|--8-8-8-8-8-8-8-8-----------------77777777---------------------|
   Blue jeans     Alam mo ba ano ang ibig sabihin


e|---------------------------------------------------------------|
B|---------------------------------------------------------------|
G|---------------------------------------------------------------|
D|-77777777-------------------------55555555---------------------|
A|-77777777-------------------------55555555---------------------|
E|-55555555-------------------------33333333---------------------|
   Ng ating pagsisikap sa ‘skwela

e|---------------------------------------------------------------|
B|---------------------------------------------------------------|
G|---------------------------------------------------------------|
D|-1010101010101010-----------------99999999---------------------|
A|-1010101010101010-----------------99999999---------------------|
E|--8-8-8-8-8-8-8-8-----------------77777777---------------------|
   Blue jeans      Di na lang iwanan ang pag-aaral

e|---------------------------------------------------------------|
B|---------------------------------------------------------------|
G|---------------------------------------------------------------|
D|-77777777-------------------------55555555---------------------|
A|-77777777-------------------------55555555---------------------|
E|-55555555-------------------------33333333---------------------|
   At sama-sama tayong magsaya

e|---------------------------------------------------------------|
B|---------------------------------------------------------------|
G|---------------------------------------------------------------|
D|-1010101010101010-----------------99999999---------------------|
A|-1010101010101010-----------------99999999---------------------|
E|--8-8-8-8-8-8-8-8-----------------77777777---------------------|
   Blue jeans     Sige-sige-sige kayod sa ‘skwela

e|---------------------------------------------------------------|
B|---------------------------------------------------------------|
G|---------------------------------------------------------------|
D|-77777777-------------------------55555555---------------------|
A|-77777777-------------------------55555555---------------------|
E|-55555555-------------------------33333333---------------------|
   At balang araw makikita n’yo

e|---------------------------------------------------------------|
B|---------------------------------------------------------------|
G|---------------------------------------------------------------|
D|-1010101010101010-----------------99999999---------------------|
A|-1010101010101010-----------------99999999---------------------|
E|--8-8-8-8-8-8-8-8-----------------77777777---------------------|
   Blue jeans      Di na lang iwanan ang pag-aaral

e|---------------------------------------------------------------|
B|---------------------------------------------------------------|
G|---------------------------------------------------------------|
D|-77777777-------------------------55555555---------------------|
A|-77777777-------------------------55555555---------------------|
E|-55555555-------------------------33333333---------------------|
   At sama-sama tayong magsaya
e|---------------------------------------------------------------|
B|---------------------------------------------------------------|
G|---------------------------------------------------------------|
D|-1010101010101010-----------------99999999---------------------|
A|-1010101010101010-----------------99999999---------------------|
E|--8-8-8-8-8-8-8-8-----------------77777777---------------------|
   Blue jeans      Pagkatapos ng iyong paghihirap

e|---------------------------------------------------------------|
B|---------------------------------------------------------------|
G|---------------------------------------------------------------|
D|-77777777-------------------------55555555---------------------|
A|-77777777-------------------------55555555---------------------|
E|-55555555-------------------------33333333---------------------|
   Di ka rin makakahanap ng trabaho


BASS
G|--------------|
D|--------------| 12x to tapus sa 
A|--------------|
E|--8-8-5-7-8---|
Blue jeans
blue jeans
blue jenss ( heto na )


e|---------------------------------------------------------------|
B|---------------------------------------------------------------|
G|--5------------------------------------------------------------|
D|--5------------------------------------------------------------|
A|--3------------------------------------------------------------|
E|---------------------------------------------------------------|
    Blue Jeans!!!!!!!!!!!!!

Time Elapsed: 8:40 PM - 8:55 PM
nakakahilo pag may mali itama nyo nalang hirap 
mag type

For Any Suggestion,Comments,Request hehe
TXT  : ( 09187229082 ) Rogem S. Battung

Rate my tab kung may tym ka Salamat!!!!!
            
Submit corrections


        Blue Jeans lessons Hard to play? Try these video lessons and learn fast Blue Jeans lessons
        
↑ Back to top | Tablatures and chords for acoustic guitar and electric guitar, ukulele, drums are parodies/interpretations of the original songs. You may use it for private study, scholarship, research or language learning purposes only