» » »

Rock Kills Kid - Are You Nervous? Tabs

Artists:  A B C D E F G H I J K L M N O P Q R S T U V W X Y Z # 

Are You Nervous? Tabs

(ver. 2) Click to play this song!
Rock Kills Kid
 Rating:
4/5 (4 votes)

 Are You Nervous? lessons Tabs too difficult? Try these video lessons and learn fast
 
                ----------------------------------------------------------------------------
                             ARE YOU NERVOUS? - Rock Kills Kid
----------------------------------------------------------------------------

Tuning: EADGBE

"And the sky will..."
e|----------------------------------------------------------------|
B|--7-----6-----4-------------------------------------------------|
G|--6-----6-----3-----6-------------------------------------------|
D|--4-----4-----1-----6-------------------------------------------|
A|--------------------4-------------------------------------------|
E|----------------------------------------------------------------|

listen to the song to get the tempo
and please if you have anymore tabbed out or if you think this is wrong e-mail me

| /  slide up
| \  slide down
| h  hammer-on
| p  pull-off
| ~  vibrato
| +  harmonic
| x  Mute note
            
Submit corrections


        Are You Nervous? lessons Hard to play? Try these video lessons and learn fast Are You Nervous? lessons
        
↑ Back to top | Tablatures and chords for acoustic guitar and electric guitar, ukulele, drums are parodies/interpretations of the original songs. You may use it for private study, scholarship, research or language learning purposes only