Home » R » Rob Zombie »

Rob Zombie - Let It All Bleed Out Tabs

Artists:  A B C D E F G H I J K L M N O P Q R S T U V W X Y Z # 

Let It All Bleed Out Tabs

(ver. 3) Click to play this song!
Rob Zombie
 Rating:
4/5 (7 votes)
                11/29/08

This is just the basic notes that you need,I'm sure all you smart people out there are 
idiots and can figure out the muting and such. Sorry, No solo. D:
later.

Tuning: CGCFAD

M=Palm Mute
R=Repeat

Intro/Verse/Main Riff:

D|---------------------------------- |----------------|
A|---------------------------------- |----------------|
F|---------------------------------- |----------------|
C|----------------------|Play Once|- |----------------|
G|-0-0-0-0-3p0-0-0-0-0-0-0-0-0-0-0-R |-12-12-10-12-13-|
C|-0-0-0-0-3p0-0-0-0-0-0-0-0-0-0-0-R |-12-12-10-12-13-|
   M M M M     M   M M M   M M M

Chorus:

D|-------------------------------|
A|-------------------------------|
F|-------------------------------|
C|-------------------------------|x2
G|-0-6--5-3--0-6--5-3--0-Let-Ring|
C|-0-6--5-3--0-6--5-3--0---------|

Bridge:

D|------------------------------------------|
A|------------------------------------------|
F|------------------------------------------|
C|-5--5-5--5-5-5-8--8--8-1--1-1--1-1-1-3-3-3|x4
G|-5--5-5--5-5-5-8--8--8-1--1-1--1-1-1-3-3-3|
C|-5--5-5--5-5-5-8--8--8-1--1-1--1-1-1-3-3-3|

The other bridge...

D|-----------------------------|
A|----------------------8------|
F|-----------------------------|
C|-5-6-5--5-6-5--5-6-5-----6---|x8
G|-----------------------------|
C|-----------------------------|

Well, that's more or less it.
If you want to use this tab for other purposes, or have found errors or have a solo, 
Expect a Guitar Pro tab eventually.
            
Submit corrections

↑ Back to top | Tablatures and chords for acoustic guitar and electric guitar, ukulele, drums are parodies/interpretations of the original songs. You may use it for private study, scholarship, research or language learning purposes only