Home » R » Rob Zombie »

Rob Zombie - Let It All Bleed Out Tabs

Artists:  A B C D E F G H I J K L M N O P Q R S T U V W X Y Z # 

Let It All Bleed Out Tabs

(ver. 2) Click to play this song!
Rob Zombie
 Rating:
4/5 (6 votes)
                06/20/09

This is me again with the little tweaks I noticed.
This is just the basic notes that you need,I'm sure all you smart people out there 
idiots and can figure out the muting and such. Sorry, No solo. D:

Tuning: CGCFAD

M=Palm Mute
R=Repeat

Intro/Verse/Main Riff:

D|---------------------------------- |----------------|
A|---------------------------------- |----------------|
F|---------------------------------- |----------------|
C|----------------------|Play Once|- |----------------|
G|-0-0-0-0-1p0-0-0-0-0-0-0-0-0-0-0-R |-12-12-10-12-13-|
C|-0-0-0-0-1p0-0-0-0-0-0-0-0-0-0-0-R |-12-12-10-12-13-|
   M M M M     M   M M M   M M M

Chorus:

D|-------------------------------|
A|-------------------------------|
F|-------------------------------|
C|-------------------------------|x2
G|-0-6--5-3--0-6--5-3--0-Let-Ring|
C|-0-6--5-3--0-6--5-3--0---------|

Bridge:

Gtr. 1
D|-[Play Twice, and change last note to:]--
A|--------------------------------------|----|
F|--------------15--14--15--14----------|17--|
C|-12-/17-15----------------------------|----|
G|--------------------------------------|----|
C|--------------------------------------|----|

Gtr. 2
D|------------------------------------------|
A|------------------------------------------|
F|------------------------------------------|
C|-5--5-5--5-5-5-8--8--8-1--1-1--1-1-1-3-3-3|x4
G|-5--5-5--5-5-5-8--8--8-1--1-1--1-1-1-3-3-3|
C|-5--5-5--5-5-5-8--8--8-1--1-1--1-1-1-3-3-3|

The other bridge...

D|-----------------------------|
A|----------------------8------|
F|-0---0--0---0--0---0---------|
C|---6------6------6-------6---|x8
G|-----------------------------|
C|-----------------------------|

Well, that's more or less it.
If you want to use this tab for other purposes, or have found errors or have a solo,
Expect a Guitar Pro tab eventually.
            
Submit corrections

↑ Back to top | Tablatures and chords for acoustic guitar and electric guitar, ukulele, drums are parodies/interpretations of the original songs. You may use it for private study, scholarship, research or language learning purposes only