Home » R » Rob Zombie »

Rob Zombie - Houe Of 1000 Corpses Tabs

Artists:  A B C D E F G H I J K L M N O P Q R S T U V W X Y Z # 

Houe Of 1000 Corpses Tabs

(ver. 3) Click to play this song!
Rob Zombie
 Rating:
3.6/5 (7 votes)
                                 House of 1000 Corpses (Title Song)- Rob Zombie

               This is the song played during the opening credits of 
                 Rob Zombie’s masterpiece Houses of 1000 Corpses.


Tuning: Standard

Main Riff  Intro. Play 4 times
e|------------------------------------|
B|------------------------------------|                                     
G|------------------------------------|
D|----/6------------------------------|                                     
A|------------------------------------|
E|-----------4----1-------------------| 

 Verse
e|-------------------------------------------------------------------|
B|-------------------------------------------------------------------|
G|-------------------------------------------------------------------|
D|----/6------------------------------------------------/6-----------|
A|-------------------------------------------------------------------|
E|--------4----1---------------------------------------------4---1---|
                     She had a corpse under her bed...

 Chorus   play 4 times
e|-------------------------------------------------------------------|
B|-------------------------------------------------------------------|
G|-------------------------------------------------------------------|
D|--3--3-3----6--6-6---5-6-5-6----6--5--6----------------------------|
A|--3--3-3----6--6-6---5-6-5-6----6--5--6----------------------------|
E|--1--1-1----4--4-4---3-4-3-4----4--3--4----------------------------|
    This is the house   come on in...

Lyrics:
She had a corpse
Under her bed
She had her fun
But now he's dead
Hear momma said
Come feed desire
Her brother said
Hey, throw her on the fire

This is the house
Come on in
This is the house
Built on sin
This is the house
Nobody lives
This is the house
You get what you give

I cut the flesh
And make it bleed
Fresh skin
Is what I need
I let it dry
Out in the wood
All your crying
Did no good, yeah

Now you're lying
On the floor
Yeah, you can't
Take anymore
The devil's laughing
In your face
Give me another taste, yeah

| /  slide up
| \  slide down
| h  hammer-on
| p  pull-off
| ~  vibrato
| +  harmonic
| x  Mute note
============================================================================
            
Submit corrections

↑ Back to top | Tablatures and chords for acoustic guitar and electric guitar, ukulele, drums are parodies/interpretations of the original songs. You may use it for private study, scholarship, research or language learning purposes only