» » »

Rob Zombie - Houe Of 1000 Corpses Tabs

Artists:  A B C D E F G H I J K L M N O P Q R S T U V W X Y Z # 

Houe Of 1000 Corpses Tabs

(ver. 2) Click to play this song!
Rob Zombie
 Rating:
4/5 (11 votes)

 Houe Of 1000 Corpses lessons Tabs too difficult? Try these video lessons and learn fast
 
                Rob Zombie - House of 1000 Corpses


This tab is for Standard Tuning and includes the piano parts so a guitar
player can play the whole song through. Enjoy!


Intro & Verse: (For the bend on the 4, just bend a little, you dont need to shift 
a whole semi-tone)
E||------------------------------------------------------|  
B||------------------------------------------------------|
G||------------------------------------------------------|
D||----------------3-------------------------------------|
A||------------------------------------------------------|
E||-------------------4b-----1---------------------------|



Chorus:      
|--------------------------------------------------------|
|--------------------------------------------------------|
|--------------------------------------------------------|
|--3----3--3--6----------5----6--5----6----6--5----6-----|
|--3----3--3--6----------5----6--5----6----6--5----6-----|
|--1----1--1--4----------3----4--3----4----4--3----4-----|



Port Chorus (Piano): (You can replace this with root 6 power chords.)
E||------------------------------------------------------|  
B||------------------------------------------------------|
G||--1---1-1----1---0-------------1---1-1----0--3--------|
D||------------------------------------------------------|
A||------------------------------------------------------|
E||------------------------------------------------------|



Verse + Piano Part:
E||------------------------------------------------------|  
B||------------------------------------------------------|
G||------------------------------------------------------|
D||----------------3-------------------------4------4----|
A||----------------------------------3-------------------|
E||-------------------4b-----1---------------------------|

E||------------------------------------------------------|  
B||------------------------------------------------------|
G||------------------------------------------------------|
D||----------------3-------------------------4------6----|
A||----------------------------------3-------------------|
E||-------------------4b-----1---------------------------|
            
Submit corrections


        Houe Of 1000 Corpses lessons Hard to play? Try these video lessons and learn fast Houe Of 1000 Corpses lessons
        
↑ Back to top | Tablatures and chords for acoustic guitar and electric guitar, ukulele, drums are parodies/interpretations of the original songs. You may use it for private study, scholarship, research or language learning purposes only