Home » R » Rob Zombie »

Rob Zombie - Demonoid Phenomenon Tabs

Artists:  A B C D E F G H I J K L M N O P Q R S T U V W X Y Z # 

Demonoid Phenomenon Tabs

(ver. 3) Click to play this song!
Rob Zombie
Writen By James Wood
Artist Rob Zombie
Song Demonoid Phenomenon
Drop to D tuning
D,A,F,C,G,C

Intro:
c|--2-2-2-2-2-2-2-2\3/2-2-2-2-2-2-2----
g|--2-2-2-2-2-2-2-2\3/2-2-2-2-2-2-2----
c|--2-2-2-2-2-2-2-2\3/2-2-2-2-2-2-2----

Chorus:
c|--2-2-2-2-2-2-2-2\3/2-2-2-2-2-2-2----
g|--2-2-2-2-2-2-2-2\3/2-2-2-2-2-2-2----
c|--2-2-2-2-2-2-2-2\3/2-2-2-2-2-2-2----

Solo:1
c|--2-1-0----2-1-0----2-1-0----2-1-0---
g|--2-1-0----2-1-0----2-1-0----2-1-0---
c|--2-1-0----2-1-0----2-1-0----2-1-0---

Solo:2
c|--16-16-16-20^-16-16-16-20^--------

End Part:
d|------------------------------------------------------
a|------------------9-11^----------------------------
f|------------8-11------------------------------------
.......................Enjoy..........................
            
Submit corrections

↑ Back to top | Tablatures and chords for acoustic guitar and electric guitar, ukulele, drums are parodies/interpretations of the original songs. You may use it for private study, scholarship, research or language learning purposes only