Home » R » Rob Zombie »

Rob Zombie - Demonoid Phenomenon Tabs

Artists:  A B C D E F G H I J K L M N O P Q R S T U V W X Y Z # 

Demonoid Phenomenon Tabs

(ver. 2) Click to play this song!
Rob Zombie


intro/chorus
d-----------------------
A----------------------
F----------------------
C--2-2-2-2-2-2-2\3/2-2-2-2-2-2
G--2-2-2-2-2-2-2\3/2-2-2-2-2-2
C--2-2-2-2-2-2-2\3/2-2-2-2-2-2

and then it goes 
d-----------------------------
A-----------------------------
F-----------------------------
C--2-2-2-2-2-2-2\3/2-2-2-2-2-2
G--2-2-2-2-2-2-2\3/2-2-2-2-2-2
C--2-2-2-2-2-2-2\3/2-2-2-2-2-2
p.m._________ ________

d--------------------------------
A--------------------------------
F---------------------------------
C--2-1-0---2-1-0--2-1-0---2-1-0
G--2-1-0---2-1-0--2-1-0---2-1-0
C--2-1-0-0-2-1-0--2-1-0-0-2-1-0

Solo -with wah
d-------------------------------------
A------------------------------------
F-------------------------------------
C--16-16-16-20^-16-16-16-20^
G--------------------------------------
C--------------------------------------

with phaser
d-------------------------------------------
A----------9-11^----------------------
F--8-11----------------------------------
C------------------------------------------
G--------------------------------------------
C---------------------------------------------


im no sure if this i right but this is the best i can do 4 now
            
Submit corrections

↑ Back to top | Tablatures and chords for acoustic guitar and electric guitar, ukulele, drums are parodies/interpretations of the original songs. You may use it for private study, scholarship, research or language learning purposes only