» » »

Rob Scallon - Metal Mad Libs Tabs

Artists:  A B C D E F G H I J K L M N O P Q R S T U V W X Y Z # 

Metal Mad Libs Tabs

(ver. 3) Click to play this song!
Rob Scallon
 Rating:
4/5 (4 votes)

 Metal Mad Libs  lessons Tabs too difficult? Try these video lessons and learn fast
 
                (3)
Tempo = 125
Electric Guitar

Legend
L - tied note
x - dead note
h - hammer on/pull off
b - bend
s - slide
~ - vibrato
g - ghost note
> - accentuated note
t - trill
M - palm mute
. - staccato
P - popping (bass)
S - slapping (bass)
+ - tapping
W - wide vibrato
 - accentuated note
t - trill
M - palm mute
. - staccato
P - popping (bass)
S - slapping (bass)
+ - tapping
W - wide vibrato
< - fade in
w - whammy bar
= - tremolo picking
v - brush up
^ - brush down
V - pick stroke up
n - pick stroke down


E |----|----|----|----|----|----|----|----|----|----|----|----|----|----|----|
B |----|----|----|----|----|----|----|----|----|----|----|----|----|----|----|
G |----|----|----|----|----|----|----|----|----|----|----|----|----|----|----|
D |----|----|----|----|----|----|----|----|----|----|----|----|----|----|----|
A |----|----|----|----|----|----|----|----|----|----|----|----|----|----|----|
E |----|----|----|----|----|----|----|----|----|----|----|----|----|----|----|
B |----|----|----|----|----|----|----|----|----|----|----|----|----|----|----|
F#|----|----|----|----|----|----|----|----|----|----|----|----|----|----|----|


----|----|----|----|----|----|----|----|----------|----------------------|
----|----|----|----|----|----|----|----|----------|----------------------|
----|----|----|----|----|----|----|----|----------|----------------------|
----|----|----|----|----|----|----|----|--5--8----|--9~-------12-11-9----|
----|----|----|----|----|----|----|----|----------|----------------------|
----|----|----|----|----|----|----|----|----------|----------------------|
----|----|----|----|----|----|----|----|----------|----------------------|
----|----|----|----|----|----|----|----|----------|----------------------|


----------------------------------------------------------------------------|
----------------------------------------------------------------------------|
----------------------------------------------------------------------------|
--8~-------------------------8--9--11-12~------------------------0--11-12---|
----------------------------------------------------------------------------|
----------------------------------------------------------------------------|
----------------------------------------------------------------------------|
----------------------------------------------------------------------------|


----------------------|
----------------------|
----------------------|
--16~------12-11-9----|
----------------------|
----------------------|
----------------------|
----------------------|


----------------------------------------------------------------------------|
----------------------------------------------------------------------------|
----------------------------------------------------------------------------|
--17~------------------------16-------16~------------------------0--16-17---|
----------------------------------------------------------------------------|
----------------------------------------------------------------------------|
----------------------------------------------------------------------------|
----------------------------------------------------------------------------|

  W                                   W
----------------------------------------------------------------------------|
----------------------------------------------------------------------------|
-----------------------------------------------------------------0--15-16---|
--24-------------------------0--16-17-23------------------------------------|
----------------------------------------------------------------------------|
----------------------------------------------------------------------------|
----------------------------------------------------------------------------|
----------------------------------------------------------------------------|

  W                                   W
----------------------------------------------------------------------------|
-----------------------------------------------------------------0--12-15---|
--24-------------------------0--15-16-23------------------------------------|
----------------------------------------------------------------------------|
----------------------------------------------------------------------------|
----------------------------------------------------------------------------|
----------------------------------------------------------------------------|
----------------------------------------------------------------------------|


----------------------------------------------------------------------------|
--24-15-12-0--12-15-24-15-12-0--12-15-24-15-12-0--12-15-24-15-12-0--12-15---|
----------------------------------------------------------------------------|
----------------------------------------------------------------------------|
----------------------------------------------------------------------------|
----------------------------------------------------------------------------|
----------------------------------------------------------------------------|
----------------------------------------------------------------------------|


----------------------------------------------------------------------------|
--23-15-12-0--12-15-23-15-12-0--12-15-23-15-12-0--12-15-23-15-12-0--12-15---|
----------------------------------------------------------------------------|
----------------------------------------------------------------------------|
----------------------------------------------------------------------------|
----------------------------------------------------------------------------|
----------------------------------------------------------------------------|
----------------------------------------------------------------------------|


-------|----|----|----|----|----|----|----|----|----|----|----|----|----|----|
--24~--|----|----|----|----|----|----|----|----|----|----|----|----|----|----|
-------|----|----|----|----|----|----|----|----|----|----|----|----|----|----|
-------|----|----|----|----|----|----|----|----|----|----|----|----|----|----|
-------|----|----|----|----|----|----|----|----|----|----|----|----|----|----|
-------|----|----|----|----|----|----|----|----|----|----|----|----|----|----|
-------|----|----|----|----|----|----|----|----|----|----|----|----|----|----|
-------|----|----|----|----|----|----|----|----|----|----|----|----|----|----|
            
Submit corrections


        Metal Mad Libs  lessons Hard to play? Try these video lessons and learn fast Metal Mad Libs  lessons
        
↑ Back to top | Tablatures and chords for acoustic guitar and electric guitar, ukulele, drums are parodies/interpretations of the original songs. You may use it for private study, scholarship, research or language learning purposes only