» » »

Rival Schools - Used For Glue Tabs

Artists:  A B C D E F G H I J K L M N O P Q R S T U V W X Y Z # 

Used For Glue Tabs

(ver. 1) Click to play this song!
Rival Schools
 Rating:
4/5 (4 votes)

 Used For Glue lessons Tabs too difficult? Try these video lessons and learn fast
 
                
band: Rival Schools

This is a fantastic song create by this guys of Rival Schools
just have fun
VIVA MEXICO!

INTRO
e-|-0----(0)---------------|
b-|-3----(3)-------5-4-----|
g-|-2----(2)---------------|
D-|------------------------|
A-|------------------------|
D-|------------------------|

HEAVY!
e-|-------------------------------------|
b-|-------------------------------------|
g-|-------------------------------------|  x8
D-|-2h4-4-4-4-4-4-2h4-x--2h4-4-4-4-4-4--|
A-|-2h4-4-4-4-4-4-2h4-x--2h4-4-4-4-4-4--|
D-|-2h4-4-4-4-4-4-2h4-x--2h4-4-4-4-4-4--|


VERSE
      Days of the conflicts you?ve been in...
e-|------------------------------------------------|
b-|------------------------------------------------|
g-|--7---------(7)-------------7--------(7)--------|
D-|--7---------(7)-------------7--------(7)--------|
A-|--5---------(5)-------------5--------(5)--------|
D-|------------------------------------------------|

                         You hear it now....
e-|-------------------------------------|
b-|-------------------------------------|
g-|-------------------------------------|  x2
D-|-2h4-4-4-4-4-4-2h4-x--2h4-4-4-4-4-4--|
A-|-2h4-4-4-4-4-4-2h4-x--2h4-4-4-4-4-4--|
D-|-2h4-4-4-4-4-4-2h4-x--2h4-4-4-4-4-4--|

       Taken by conscience or taken by guilt...
e-|------------------------------------------------|
b-|------------------------------------------------|
g-|--7---------(7)-------------7--------(7)--------|
D-|--7---------(7)-------------7--------(7)--------|
A-|--5---------(5)-------------5--------(5)--------|
D-|------------------------------------------------|

PRE-CHORUS               You hear it now....
e-|----0---0-----0---0-----0---0-----0---0----|
b-|-------------------------------------------|
g-|--0---0-----0---0-----0---0-----0---0------|
D-|-------------------------------------------|
A-|-------------------------------------------|
D-|-------------------------------------------|

CHORUS
                   The blame is found...
e-|---------------------------------|
b-|---------------------------------|
g-|---------------------------------|
D-|--4--4--4-5-5-5-0-0-0-0-0-0-0----|
A-|--4--4--4-5-5-5-0-0-0-0-0-0-0----|
D-|--4--4--4-5-5-5-0-0-0-0-0-0-0----|

POST-CHORUS
e-|-------------------------------------|
b-|-------------------------------------|
g-|-------------------------------------|  x2
D-|-2h4-4-4-4-4-4-2h4-x--2h4-4-4-4-4-4--|
A-|-2h4-4-4-4-4-4-2h4-x--2h4-4-4-4-4-4--|
D-|-2h4-4-4-4-4-4-2h4-x--2h4-4-4-4-4-4--|

2nd VERSE
         Dazed for time you were into....
e-|------------------------------------------------|
b-|------------------------------------------------|
g-|--7---------(7)-------------7--------(7)--------|
D-|--7---------(7)-------------7--------(7)--------|
A-|--5---------(5)-------------5--------(5)--------|
D-|------------------------------------------------|

PRE-CHORUS             You call them now...
e-|----0---0-----0---0-----0---0-----0---0----|
b-|-------------------------------------------|
g-|--0---0-----0---0-----0---0-----0---0------|
D-|-------------------------------------------|
A-|-------------------------------------------|
D-|-------------------------------------------|

CHORUS
                   The blame is found...
e-|---------------------------------|
b-|---------------------------------|
g-|---------------------------------|
D-|--4--4--4-5-5-5-0-0-0-0-0-0-0----|
A-|--4--4--4-5-5-5-0-0-0-0-0-0-0----|
D-|--4--4--4-5-5-5-0-0-0-0-0-0-0----|

PRE-SOLO
e-|----0---0-----0---0-----0---0-----0---0----|
b-|-------------------------------------------|
g-|--0---0-----0---0-----0---0-----0---0------|
D-|-------------------------------------------|
A-|-------------------------------------------|
D-|-------------------------------------------|

SOLO
e-|----------------------------------------------------------------------|
b-|----------------------------------------------------------------------|
g-|----------------------------------------------------------------------|
D-|-2/4-4-4-4/7-7-7-7/12-12-12-12/11-11-11-11/9-9-9-9/7-7-7-7/6-6-6-6/4--|
A-|----------------------------------------------------------------------|
D-|----------------------------------------------------------------------|

e-|------------------------------------------------------------------|
b-|------------------------------------------------------------------|
g-|------------------------------------------------------------------|
D-|-4-4-4/2-2-2b0----------------------------------------------------|
A-|---------------5-5-5/4-4-4-4/2-2-2-2b0----------------------------|
D-|---------------------------------------7-7-7/6-6-6-6/4-4-4-4/2-2--|

e-|-------------------------------------|
b-|-------------------------------------|
g-|-------------------------------------|  x2
D-|-2h4-4-4-4-4-4-2h4-x--2h4-4-4-4-4-4--|
A-|-2h4-4-4-4-4-4-2h4-x--2h4-4-4-4-4-4--|
D-|-2h4-4-4-4-4-4-2h4-x--2h4-4-4-4-4-4--|

e-|-999999--------9999999----------9--------------------------------------------|
b-|--------777777---------777777------7-----------------------------------------|
g-|--------------------------------------6--7--9--7--6----7--9--11--9--11--11^--|
D-|-----------------------------------------------------------------------------|
A-|-----------------------------------------------------------------------------|
D-|-----------------------------------------------------------------------------|

CHORUS
                   The blame is found...
e-|---------------------------------|
b-|---------------------------------|
g-|---------------------------------|
D-|--4--4--4-5-5-5-0-0-0-0-0-0-0----|
A-|--4--4--4-5-5-5-0-0-0-0-0-0-0----|
D-|--4--4--4-5-5-5-0-0-0-0-0-0-0----|
     Clean
                   You got it!  You got it!
e-|---------------------------------|
b-|---------------------------------|
g-|---------------------------------|
D-|--4--4--4-5-5-5-0-0-0-0-0-0-0----|
A-|--4--4--4-5-5-5-0-0-0-0-0-0-0----|
D-|--4--4--4-5-5-5-0-0-0-0-0-0-0----|
     Clean         HEAVY!


e-|--------------------------------|
b-|--------------------------------|
g-|--------------------------------|
D-|-2h4-4-4-4--2-2h4-x--2h4-4-4/---|
A-|-2h4-4-4-4--2-2h4-x--2h4-4-4/---|
D-|-2h4-4-4-4--2-2h4-x--2h4-4-4/---|

LYRICS
USED FOR GLUE

Days of the conflicts you?ve been in
Traces of conscience you don?t want to hear
You hear it now
You listen, hear a sound
You missed it
Taken by conscience or taken by guilt
You live in the problems you decided to build
You hear it now
You listen and hear a sound that cant be still
The blame is found, you got it
Rode when she was new
But wasn?t told when she was through
Yeah
Dazed for time you were into
Praise from the crowd that you wanted to fool
You call them now, they?re waiting
To hear a sound that can?t be still
The blame is found, you got it
Rode when she was new but wasn?t told when she was through
Yeah
            
Submit corrections


        Used For Glue lessons Hard to play? Try these video lessons and learn fast Used For Glue lessons
        
↑ Back to top | Tablatures and chords for acoustic guitar and electric guitar, ukulele, drums are parodies/interpretations of the original songs. You may use it for private study, scholarship, research or language learning purposes only