Home » R » Ride »

Ride - Vapour Trail Tabs

Artists:  A B C D E F G H I J K L M N O P Q R S T U V W X Y Z # 

Vapour Trail Tabs

(ver. 3) Click to play this song!
Ride
[Intro/verse]
 
e|--0--0--0--0--|
B|--0--0--0--0--|
G|--9--8--9--9--|
D|--9--9--9--9--|
A|--x--9--0--7--|
E|--9--7--x--0--|


[Mark's guitar]

during all the verses: starts at 0:15 after intro

e|-----0---0---0---0-------0---0---0---0---|
B|-----0---0---0---0-------0---0---0---0---|
G|-------9---9---9-----------9---9---9-----|
D|-------9---9---9-----------9---9---9-----|
A|----7--7---7---7-------7---7---7---7-----|
E|-0-----0---0---0----0------0---0---0-----|


[Chorus]

both of them play this

            x3             x1
e||--0--0--0--||--0--0------|
B||--0--0--0--||--0--0------|
G||--9--9--9--||--9--8------|
D||--9--9--9--||--9--9------|
A||--x--0--7--||--x--9------|
E||--9--x--0--||--9--7------|


[Mark's guitar]

02:04
                                    
e|-----0-----0------0---0---0---0-------0---0---0---0---|
B|-----0-----0------0---0---0---0-------0---0---0---0---|
G|--------------------9---9---9-------9---9---9---9-----|
D|--------------------9---9---9-------9---9---9---9-----|
A|---7-----7-------7--7---7---7-------7---7---7---7-----|
E|-0-----0------0-----0---0---0----0------0---0---0-----|


02:13 Play this out until the end
                                
e|-----0---0---0---0-------0---0---0---0-----0----0---0---0------0---0---0---0--|
B|-----0---0---0---0-------0---0---0---0-----0----0---0---0------0---0---0---0--|
G|---9---9---9---9-------------------------9----9---9---9------9---9---9---9----|
D|---9---9---9---9-------9--9---9---9------9----9---9---9------9---9---9---9----|
A|---x---x---x---x-------9--9---9---9----0------0---0---0------7---7---7---7----|
E|-9-----9---9---9----7-----7---7---7----x------------------0------0---0---0----|


02:13 depending on other live vids, sometimes he plays this straight through the end

e|------0---0---0---0-------0---0---0---0---|
B|------0---0---0---0-------0---0---0---0---|
G|--------9---9---9-------9---9---9---9-----|
D|--------9---9---9-------9---9---9---9-----|
A|-----7--7---7---7-------7---7---7---7-----|
E|--0-----0---0---0----0------0---0---0-----|


[Andy's guitar]

 play this out until the end

e|--0--0--0---0--|
B|--0--0--0---0--|
G|--9--8--9---9--|
D|--9--9--9---9--|
A|--x--9--0---7--|
E|--9--7--x---0--|
            
Submit corrections

↑ Back to top | Tablatures and chords for acoustic guitar and electric guitar, ukulele, drums are parodies/interpretations of the original songs. You may use it for private study, scholarship, research or language learning purposes only