Home » R » Ride »

Ride - Kaleidoscope Tabs

Artists:  A B C D E F G H I J K L M N O P Q R S T U V W X Y Z # 

Kaleidoscope Tabs

(ver. 2) Click to play this song!
Ride
Tuning: EADGBe (standard)

INTRO:

 Part 1
    
    D      C      B      A      D      B      A      C      D
e|-------------------------------------------------------------|
B|-------------------------------------------------------------|
G|--7--7-7-5--5-5-4--4-4-2--2-2-5--5-5-4--4-4-2--2-2-5--5-5-7--|
D|--7--7-7-5--5-5-4--4-4-2--2-2-5--5-5-4--4-4-2--2-2-5--5-5-7--|
A|--5--5-5-3--3-3-2--2-2-0--0-0-3--3-3-2--2-2-0--0-0-3--3-3-5--|
E|-------------------------------------------------------------|


    C      B      A      C      D
e|---------------------------------|
B|---------------------------------|
G|--5--5-5-4--4-4-2--2-2-5--5-5-7--|
D|--5--5-5-4--4-4-2--2-2-5--5-5-7--|
A|--3--3-3-2--2-2-0--0-0-3--3-3-5--|
E|---------------------------------|

    C      B      A      C      
e|-------------------------------|
B|-------------------------------|
G|--5--5-5-4--4-4-2--2-2-5--5-5--|
D|--5--5-5-4--4-4-2--2-2-5--5-5--| Go directly into Verse
A|--3--3-3-2--2-2-0--0-0-3--3-3--|
E|-------------------------------|

VERSE 
   
   A (Strumming)       C      B      A      B      A (Strumming)
e|-----------------------------------------------------------|
B|-----------------------------------------------------------|
G|-2-------------------5--5-5-4--4-4-2--2-2-4--4-4-2---------|
D|-2-------------------5--5-5-4--4-4-2--2-2-4--4-4-2---------|      (x4)
A|-0-------------------3--3-3-2--2-2-0--0-0-2--2-2-0---------|
E|-----------------------------------------------------------|
   I know that you are thin-  king   about  me     now

CHORUS
    E                               D
e|-----------------------------------------------------------------------|
B|-----------------------------------------------------------------------|
G|--9~~~----------------------------7~~~---------------------------------|
D|--7~~~----------------------------5~~~---------------------------------|
A|--7~~~----------------------------5~~~---------------------------------|
E|-----------------------------------------------------------------------|
        All these words that I have said float around you, fill your head

    E                                D (Strumming)                         A
e|---------------------------------------------------------------------------------|
B|---------------------------------------------------------------------------------|
G|--9~~~-----------------------------7-------------------------------------2~~~----|
D|--7~~~-----------------------------5-------------------------------------2~~~----|
A|--7~~~-----------------------------5-------------------------------------0~~~----|
E|---------------------------------------------------------------------------------|
        All the times we laughed and cried, I never thought I'd leave you  behind

Repeat:(VERSE x4)

Repeat:(CHORUS)

BRIDGE:

    C      B      A      C      D
e|---------------------------------|
B|---------------------------------|
G|--5--5-5-4--4-4-2--2-2-5--5-5-7--|
D|--5--5-5-4--4-4-2--2-2-5--5-5-7--|
A|--3--3-3-2--2-2-0--0-0-3--3-3-5--|
E|---------------------------------|

    C      B      A      C      
e|-------------------------------|
B|-------------------------------|
G|--5--5-5-4--4-4-2--2-2-5--5-5--|
D|--5--5-5-4--4-4-2--2-2-5--5-5--| Go directly into Solo
A|--3--3-3-2--2-2-0--0-0-3--3-3--|
E|-------------------------------|

SOLO:
    E (Strum fairly quickly)        
e|------------------------------------------------------------------------------------------|
B|------------------------------------------------------------------------------------------|
G|--9-9-9-9-9-9-9-9-9-9-9-9-9-9-9-9---9---9---9---9---9----9-9-9-9-9-9-9-9-9-9-9-9-9-9-9-9--|
D|--9-9-9-9-9-9-9-9-9-9-9-9-9-9-9-9-9---9---9---9---9---9--9-9-9-9-9-9-9-9-9-9-9-9-9-9-9-9--|  (X2)
A|--7-7-7-7-7-7-7-7-7-7-7-7-7-7-7-7------------------------7-7-7-7-7-7-7-7-7-7-7-7-7-7-7-7--|
E|------------------------------------------------------------------------------------------|

OUTRO CHORUS

    E                                D 
e|-----------------------------------------------------------------------|
B|-----------------------------------------------------------------------|
G|--9~~~-----------------------------7~~~--------------------------------|
D|--7~~~-----------------------------5~~~--------------------------------|
A|--7~~~-----------------------------5~~~--------------------------------|
E|-----------------------------------------------------------------------|
        All these words that I have  said float around you, fill your head
    E                                D 
e|-----------------------------------------------------------------------|
B|-----------------------------------------------------------------------|
G|--9~~~-----------------------------7~~~--------------------------------|
D|--7~~~-----------------------------5~~~--------------------------------|
A|--7~~~-----------------------------5~~~--------------------------------|
E|-----------------------------------------------------------------------|
        All the times we laughed and cried, I never thought I'd change your mind

    E                                D 
e|-----------------------------------------------------------------------|
B|-----------------------------------------------------------------------|
G|--9~~~-----------------------------7~~~--------------------------------|
D|--7~~~-----------------------------5~~~--------------------------------|
A|--7~~~-----------------------------5~~~--------------------------------|
E|-----------------------------------------------------------------------|
        All these songs that fill my head dance around you when I'm dead

    E               G                     Gb --Strum 24 times (pictured here as 16)            A
e|-------------------------------------------------------------------------------------------------|
B|-------------------------------------------------------------------------------------------------|
G|--9-9-9-9-9-9-9-9-12-12-12-12-12-12-12--11-11-11-11-11-11-11-11-11-11-11-11-11-11-11-11------2---|
D|--9-9-9-9-9-9-9-9-12-12-12-12-12-12-12--11-11-11-11-11-11-11-11-11-11-11-11-11-11-11-11------2---|
A|--7-7-7-7-7-7-7-7-10-10-10-10-10-10-10--9--9--9--9--9--9--9--9--9--9--9--9--9--9--9--9-------0---|
E|-------------------------------------------------------------------------------------------------|
             
Submit corrections

↑ Back to top | Tablatures and chords for acoustic guitar and electric guitar, ukulele, drums are parodies/interpretations of the original songs. You may use it for private study, scholarship, research or language learning purposes only