Home » R » Rick Springfield »

Rick Springfield - Jessie's Girl Bass

Artists:  A B C D E F G H I J K L M N O P Q R S T U V W X Y Z # 

Jessie's Girl Bass
Version #1
Rick Springfield


Copy URL

1. Intro/Verses/Guitar riff
G|----------------------------------|
D|----------------------------------|
A|--5---5-0-0-2-2---------0-0-5-5---|
E|------------------3---3-----------|

2. Pre Chorus
G|-----------------|
D|-----------------|
A|-0-0-0-0-0-0-0-0-|
E|-----------------|

3. Chorus Part 1
G|----------------------------------|
D|----------------------------------|
A|-0-5---5---5----0-2-2-0---2-2-0---|
E|----------------------------------|

4. Chorus Part 2
G|----------------------------------|
D|----------------------------------|
A|------0---5------2---2-2-0-0------|
E|--3-------------------------------|

*During 2nd chorus, repeat part 1, then play the 1st 3 notes of part 2 twice, then play 
2 again.

5. Bridge
G|----------------------------------|
D|----------------------------------|
A|--------------(0---0-0-0-0-0-0-0)-|
E|-3-3-3-3-3-3-3-3-3-3-3-3-3-3-3-3--|

**()* = 6th time through.

6. Post-Bridge
G|----------------------------------|
D|----------------------------------|
A|---2---2---2----------------------|
E|-2-------------2-4-4-2---4-4-2----|

7. Outro
G|----------------------------------|
D|----------------------------------|
A|-0-5---5------0--5--0--------5----|
E|------------------------3---------|

Here is the order by number: 1 (x9), 2, 3 (x2), 4, 1 (x7), 2, 3 (x2), 4, 3 (x2), 4, 5 
6 (x4), 4, 1 (x4), 2, 3 (x3), 4, 3 (x3), 7.

;)
            
Submit corrections

↑ Back to top | Tablatures and chords for acoustic guitar and electric guitar, ukulele, drums are parodies/interpretations of the original songs. You may use it for private study, scholarship, research or language learning purposes only