» » »

Rick Astley - Never Gonna Give You Up Tabs

Artists:  A B C D E F G H I J K L M N O P Q R S T U V W X Y Z # 

Never Gonna Give You Up Tabs

(ver. 3) Click to play this song!
Rick Astley
 Rating:
4/5 (12 votes)

 Never Gonna Give You Up lessons Tabs too difficult? Try these video lessons and learn fast
 
                This tab is written by me, Silver_Spork.

Standard Tuning
/ = slide
* = 1/8 note
^ = full bend
h = hammer on
p = pull off
t = finger tap

|------------------|
|------------------|
|------------------|
|------------------|
|-------------18/14|
|14-16--16-18------|

|------------------|
|------------------|
|------------------|
|------------------|
|------------------|
|14-16--11-12------|
 
^That x2^

Riff 

|------------------|
|------------------|
|--------*---------|
|--------8-*-------|
|8--6--8-6-6-------|
|6--4--6---4-------|

^ That x4 ^

Verse

|------------------|
|------------------|
|------------------|
|------------------|
|-------------18/14|
|14-16--16-18------|

|------------------|
|------------------|
|------------------|
|------------------|
|------------------|
|14-16--11-12------|

^ that x2 ^

Riff


|------------------|
|------------------|
|--------*---------|
|--------8-*-------|
|8--6--8-6-6-------|
|6--4--6---4-------|

^ That x4 ^


Verse

|------------------|
|------------------|
|------------------|
|------------------|
|-------------18/14|
|14-16--16-18------|

|------------------|
|------------------|
|------------------|
|------------------|
|------------------|
|14-16--11-12------|

^ that x4 ^

Solo: (not in the song, but my band does this)

|------------------|
|--------------11--|
|-^--------^-12----|
|14-15h16p15-------|
|------------------|
|------------------|


|------------------|
|11h12-12-15-------|
|------------------|
|------------------|
|------------------|
|------------------|

  t  t  t  t
|12-13-16-12-------|
|------------11----|
|---------------10-|
|------------------|
|------------------|
|------------------|

End.
            
Submit corrections


        Never Gonna Give You Up lessons Hard to play? Try these video lessons and learn fast Never Gonna Give You Up lessons
        
↑ Back to top | Tablatures and chords for acoustic guitar and electric guitar, ukulele, drums are parodies/interpretations of the original songs. You may use it for private study, scholarship, research or language learning purposes only