» » »

Rick Astley - Never Gonna Give You Up Bass

Artists:  A B C D E F G H I J K L M N O P Q R S T U V W X Y Z # 

Never Gonna Give You Up Bass

(ver. 1) Click to play this song!
Rick Astley
 Rating:
4.3/5 (6 votes)

 Never Gonna Give You Up lessons Tabs too difficult? Try these video lessons and learn fast
 
                -------------------------------------------------------------------------------
-------------------------------------------------------------------------------


Tuning: standard BEADG

Intro:
G|-------------------------------------------------------|
D|-------------------------------------------------------|
A|-----------4-3------------------------4-3-------4-3--3-|
E|----------------4--4--4----4----------------6-6--------|
B|-4---4-4-4---------------6---6--6-6-6------------------|
                                                          >x2
G|-------------------------------------------------------|
D|-------------------------------------------------------|
A|-----------4-3-----------------------4-----------4--4--|
E|----------------4--4--4--4-4-------6---6---4-4-6-------|
B|-4---4-4-4---------------------6-6---------------------|

Verse 1:
G|-------------------------------------------------------|
D|-------------------------------------------------------|
A|-------4-3-----------------------4-3-------------------|
E|-6-6-6------6--6--6----6---4-5-6---------6-------------|
B|---------------------6-----------------6---------------|
                                                          >x2
G|-------------------------------------------------------|
D|-------------------------------------------------------|
A|-------4-3---------------------------------------------|
E|-4-5-6------6--6--6--6-6--------------4---4-4-----4----|
B|---------------------------4--4-4-4-4-----------6------|

Bridge:
G|-------------------------------------------------------|
D|-------------------------------------------------------|
A|-------4-3-----------------------4-3-------------------|
E|-6-6-6------6--6--6----6---4-5-6---------6-------------|
B|---------------------6-----------------6---------------|

G|-------------------------------------------------------|
D|-------------------------------------------------------|
A|-------4-3-----------------------4-3-------------------|
E|-4-5-6------6--6--6--6-6---4-5-6-------4----4----------|
B|------------------------------------------6------------|

Chorus:
G|-------------------------------------------------------|
D|-------------------------------------------------------|
A|-----------4-3------------------------4-3-------4-3--3-|
E|----------------4--4--4----4----------------6-6--------|
B|-4---4-4-4---------------6---6--6-6-6------------------|
                                                          >x2
G|-------------------------------------------------------|
D|-------------------------------------------------------|
A|-----------4-3-----------------------4-----------4--4--|
E|----------------4--4--4--4-4-------6---6---4-4-6-------|
B|-4---4-4-4---------------------6-6---------------------|

Verse 2:
G|-------------------------------------------------------|
D|-------------------------------------------------------|
A|-------4-3-----------------------4-3-------------------|
E|-6-6-6------6--6--6----6---4-5-6---------6-------------|
B|---------------------6-----------------6---------------|
                                                          >x2
G|-------------------------------------------------------|
D|-------------------------------------------------------|
A|-------4-3---------------------------------------------|
E|-4-5-6------6--6--6--6-6--------------4---4-4-----4----|
B|---------------------------4--4-4-4-4-----------6------|

Bridge:
G|-------------------------------------------------------|
D|-------------------------------------------------------|
A|-------4-3-----------------------4-3-------------------|
E|-6-6-6------6--6--6----6---4-5-6---------6-------------|
B|---------------------6-----------------6---------------|

G|-------------------------------------------------------|
D|-------------------------------------------------------|
A|-------4-3-----------------------4-3-------------------|
E|-4-5-6------6--6--6--6-6---6-6-6-------4----4----------|
B|------------------------------------------6------------|

Chorus:
G|-------------------------------------------------------|
D|-------------------------------------------------------|
A|-----------4-3------------------------4-3-------4-3--3-|
E|----------------4--4--4----4----------------6-6--------|
B|-4---4-4-4---------------6---6--6-6-6------------------|
                                                          >x4
G|-------------------------------------------------------|
D|-------------------------------------------------------|
A|-----------4-3-----------------------4-----------4--4--|
E|----------------4--4--4--4-4-------6---6---4-4-6-------|
B|-4---4-4-4---------------------6-6---------------------|

Bridge:
G|-------------------------------------------------------|
D|-------4-3--------3------------------------------------|
A|-4-5-6------4--6-----------------4-3-----4-------------|
E|-----------------------4---4-5-6-------6---------------|x4
B|---------------------6---------------------------------|

(Verse 3 without 'bass', then: )

Bridge:
G|-------------------------------------------------------|
D|-------------------------------------------------------|
A|-------4-3-----------------------4-3-------------------|
E|-6-6-6------6--6--6----6---4-5-6---------6-------------|
B|---------------------6-----------------6---------------|

G|-------------------------------------------------------|
D|-------------------------------------------------------|
A|-------4-3-----------------------4-3-------------------|
E|-4-5-6------6--6--6--6-6---6-6-6-------4----4----------|
B|------------------------------------------6------------|

Chorus, outro (fade out):
G|-------------------------------------------------------|
D|-------------------------------------------------------|
A|-----------4-3------------------------4-3-------4-3--3-|
E|----------------4--4--4----4----------------6-6--------|
B|-4---4-4-4---------------6---6--6-6-6------------------|
                                                          >x6
G|-------------------------------------------------------|
D|-------------------------------------------------------|
A|-----------4-3-----------------------4-----------4--4--|
E|----------------4--4--4--4-4-------6---6---4-4-6-------|
B|-4---4-4-4---------------------6-6---------------------|

===============================================================================
Notes:

This song doesn't really have 'bass' in it, but it does have a bassline played
on a synthesizer, so here it is. From now on if You have Your bass with You,
You can officially Rickroll anyone anywhere. :)

If You have problems with this tab, write Me a mail what's wrong with it
instead of giving it a bad rating! It'd be better for everyone! Thx!


| /  slide up
| \  slide down
| h  hammer-on
| p  pull-off
| ~  vibrato
| +  harmonic
| x  Mute note
===============================================================================
            
Submit corrections


        Never Gonna Give You Up lessons Hard to play? Try these video lessons and learn fast Never Gonna Give You Up lessons
        
↑ Back to top | Tablatures and chords for acoustic guitar and electric guitar, ukulele, drums are parodies/interpretations of the original songs. You may use it for private study, scholarship, research or language learning purposes only