Home » R » Revs »

Revs - Wired To The Moon Tabs

Artists:  A B C D E F G H I J K L M N O P Q R S T U V W X Y Z # 

Wired To The Moon Tabs

(ver. 2) Click to play this song!
Revs
this had to be put up as tehre is not tab for the revs 
anywhere on the net, so this is a tab for wired to the moon
one of the revs better songs


E|--------------------------------
B|--------------------------------
G|-9-9-9-9------------------------
D|-9-9-9-9-9-9-9-9-7-7-7-7-7-7-7-7
A|-7-7-7-7-9-9-9-9-7-7-7-7-7-7-7-7
E|---------7-7-7-7-5-5-5-5-5-5-5-5

E|--------------------------------
B|--------------------------------
G|-9-9-9-9------------------------
D|-9-9-9-9-9-9-9-9-7-7-7-7-7-7-7-7
A|-7-7-7-7-9-9-9-9-7-7-7-7-7-7-7-7
E|---------7-7-7-7-5-5-5-5-5-5-5-5

E|--------------------------------
B|--------------------------------
G|-9-9-9-9------------------------
D|-9-9-9-9-9-9-9-9-7-7-7-7-7-7-7-7
A|-7-7-7-7-9-9-9-9-7-7-7-7-7-7-7-7
E|---------7-7-7-7-5-5-5-5-5-5-5-5

E|------------------
B|------------------
G|-9-9-9-9----------
D|-9-9-9-9-9-9-9-9-7
A|-7-7-7-7-9-9-9-9-7
E|---------7-7-7-7-5

you finish sharply on that final chord and then 
repeat exactly what is on screen just faster,

listen to the song for the rhythm, the tab should
be right though
enjoy
            
Submit corrections

↑ Back to top | Tablatures and chords for acoustic guitar and electric guitar, ukulele, drums are parodies/interpretations of the original songs. You may use it for private study, scholarship, research or language learning purposes only