» » »

Reveille - Plastic Tabs

Artists:  A B C D E F G H I J K L M N O P Q R S T U V W X Y Z # 

Plastic Tabs

(ver. 2) Click to play this song!
Reveille
 Rating:
4.3/5 (12 votes)

 Plastic lessons Tabs too difficult? Try these video lessons and learn fast
 
                [Intro]

(Steve)

    PM--------|      PM    PM   PM---|
D#|--------------------------------------|
A#|--------------------------------------|
F#|--------------------------------------|
C#|--0-0-0-0-0-12/10-0-10/9-0-9/8-0-8/7--|
G#|--0-0-0-0-0-12/10-0-10/9-0-9/8-0-8/7--|
C#|--0-0-0-0-0-12/10-0-10/9-0-9/8-0-8/7--|

(Greg)

pm. -------------------------------------|
D#|--------------------------------------|
A#|--------------------------------------|
F#|--------------------------------------|
C#|--0-0-0-0-0---------------------------|
G#|--0-0-0-0-0---------------------------|
C#|--0-0-0-0-0---------------------------|

D#|-------------------------------------------------|
A#|-------------------------------------------------|
F#|-------------------------------------------------|
C#|--0-0-3-3-0-0-7-7-0-10-10-0-0-3-3-0-0-6-6-0-7-7--|
G#|--0-0-3-3-0-0-7-7-0-10-10-0-0-3-3-0-0-6-6-0-7-7--|
C#|--0-0-3-3-0-0-7-7-0-10-10-0-0-3-3-0-0-6-6-0-7-7--|


[Verse]

D#|-------------------------------------------|
A#|------10-------9-------8-----7-------------|
F#|----9--------9-------9---------9-----------|
C#|--7--------7-------7-------7---------------|
G#|-------------------------------------------|
C#|-------------------------------------------|


[PreChorus]

D#|-----------------------------|
A#|-----------------------------|
F#|-----------------------------|
C#|--0--------------------------|
G#|--0--------------------------|
C#|--0---12\\10-0-10\\9-0-9\\8--|
    (^let ring out)

    PM--------|   PM -|  PM -|   PM---|
D#|--------------------------------------|
A#|--------------------------------------|
F#|--------------------------------------|
C#|--0-0-0-0-0-12/10-0-10/9-0-9/8-0-8/7--|
G#|--0-0-0-0-0-12/10-0-10/9-0-9/8-0-8/7--|
C#|--0-0-0-0-0-12/10-0-10/9-0-9/8-0-8/7--|


[Interlude]

(Main riff)

D#|------1---1--1---0---0--0-0--|
A#|------3---3--3---2---3--3-3--|
F#|------2---2--2---3---2--2-2--|x2
C#|--0---0---0--0---0---0--0-0--|
G#|--0--------------------------|
C#|--0--------------------------|

D#|----------5--5-5--5-5---8--8-8--8-7--8--8-8--|
A#|----------6--6-6--6-6---6--6-6--6-6--6--6-6--|
F#|------0---0--0-0--0-0---0--0-0--0-0--0--0-0--|
C#|--0---0---0--0-0--0-0---0--0-0--0-0--0--0-0--|
G#|--0------------------------------------------|
C#|--0------------------------------------------|

(clean lead)

D#|------------------------------------------------|
A#|-----------6---------6-5--------6-------6-5-----|
F#|--5h7--------5h7---------5h7------5h7-------5h7-|
C#|------------------------------------------------|
G#|------------------------------------------------|
C#|------------------------------------------------|

D#|---------------------------------------------------------------------------------|
A#|--6------------6------------------5-6h8-------6---------6---6h8-6---5--6h8-6---5-|
F#|----7--5h7-------7---5-4----4------------5h7----7--5h7----7----------------------|
C#|---------------------------------------------------------------------------------|
G#|---------------------------------------------------------------------------------|
C#|---------------------------------------------------------------------------------|

D#|--------------------------------------------------------------------------|
A#|----5---5-----5--------4---4-----4-------3---3-----3------/6--6---5---5---|
F#|--7---7-----7---7--7/9---9-----9---9---5---5-----5---5--------------7---7-|x2
C#|--------------------------------------------------------------------------|
G#|--------------------------------------------------------------------------|
C#|--------------------------------------------------------------------------|

(distortion)

D#|--------------------------------------------------------------------------|
A#|----5---5-----5--------4---4-----4-------3---3-----3------/6--6---5---5---|
F#|--7---7-----7---7--7/9---9-----9---9---5---5-----5---5--------------7---7-|x2
C#|--------------------------------------------------------------------------|
G#|--------------------------------------------------------------------------|
C#|--------------------------------------------------------------------------|

(the timing isn't right but you'll get the idea)

D#|--------------------------------------------------------------------------------|
A#|--10-10-10-10\\8-8-8-8-8-8\\6-6-6-6/10-10-10-10/12-12-12-12-12-12\\8-8-8-8-8-8--|
F#|--------------------------------------------------------------------------------|x2
C#|--------------------------------------------------------------------------------|
G#|--------------------------------------------------------------------------------|
C#|--------------------------------------------------------------------------------|

D#|--------------------------|
A#|--10-10-10-10-10-10-10-10-|
F#|--------------------------|
C#|--------------------------|
G#|--------------------------|
C#|--------------------------|

D#|--------------------12----13-------------------|
A#|--12-10-10-13-10-10----10----10-10-13-10-10-10-|
F#|-----------------------------------------------|x3
C#|-----------------------------------------------|
G#|-----------------------------------------------|
C#|-----------------------------------------------|

D#|---------------------------------------------------|
A#|--10-10-10-10-10-10-10-10/12-12-12-12/13-13-13-13--|
F#|---------------------------------------------------|
C#|---------------------------------------------------|
G#|---------------------------------------------------|
C#|---------------------------------------------------|

D#|--------------------12----13-------------------|
A#|--12-10-10-13-10-10----10----10-10-13-10-10-10-|
F#|-----------------------------------------------|x2
C#|-----------------------------------------------|
G#|-----------------------------------------------|
C#|-----------------------------------------------|


[Outro]

  PM----|   PM
D#|---------------|
A#|------10---10--|
F#|------13---13--|
C#|--0-0----0-----|
G#|--0-0----0-----|
C#|--0-0----0-----|

D#|---------------|
A#|------6----6p0-|
F#|------6----6p0-|
C#|--0------0-----|
G#|--0------0-----|
C#|--0------0-----|

  PM----------|
D#|----------------|
A#|----------------|
F#|----------------|
C#|--0-0-0-0-0-----|
G#|--0-0-0-0-0-----|
C#|--0-0-0-0-0-----|            
Submit corrections


        Plastic lessons Hard to play? Try these video lessons and learn fast Plastic lessons
        
↑ Back to top | Tablatures and chords for acoustic guitar and electric guitar, ukulele, drums are parodies/interpretations of the original songs. You may use it for private study, scholarship, research or language learning purposes only