» » »

Reveille - Comin Back Tabs

Artists:  A B C D E F G H I J K L M N O P Q R S T U V W X Y Z # 

Comin Back Tabs

(ver. 2) Click to play this song!
Reveille
 Rating:
4.3/5 (10 votes)

 Comin Back lessons Tabs too difficult? Try these video lessons and learn fast
 
                Tuning (C#,G#,C#,F#,A#,D#)


[Intro] 

D#|-------------|----------------------------------------------------------------|
A#|-------------|----------------------------------------------------------------|
F#|-8---7---5---|--8---7---10----------------------------------------------------|
C#|-8---7---5---|--8---7---10----------------------------------------------------|
G#|-6---5---3---|--6---5----8----------------------------------------------------|
C#|-------------|----------------------------------------------------------------|


[Intro 2]

D#|------------------------------------|-----------------------------------------|
A#|------------------------------------|-----------------------------------------|
F#|---------5---------5----------------|-----------------------------------------|
C#|-0-1h2p1-x-0-1h2p1-x--0-1-0-1-/-6---|-0-0-1-0-1-------------------------------|
G#|-0-1h2p1-3-0-1h2p1-3--0-1-0-1-/-6---|-0-0-1-0-1-------------------------------|
C#|-0-1h2p1---0-1h2p1----0-1-0-1-/-6---|-0-0-1-0-1-------------------------------|


   PM---------------------------------------|
D#|------------------------------------------------------------------------------|
A#|------------------------------------------------------------------------------|
F#|------------------------------------------------------------------------------|
C#|-0-0-1-2-1-0-0-1-2-1--0-0-1-0-1-0-0-1-0-1-------------------------------------|
G#|-0-0-1-2-1-0-0-1-2-1--0-0-1-0-1-0-0-1-0-1-------------------------------------|
C#|-0-0-1-2-1-0-0-1-2-1--0-0-1-0-1-0-0-1-0-1-------------------------------------|

(back to this)
D#|-------------|----------------------------------------------------------------|
A#|-------------|----------------------------------------------------------------|
F#|-8---7---5---|--8---7---10----------------------------------------------------|
C#|-8---7---5---|--8---7---10----------------------------------------------------|
G#|-6---5---3---|--6---5----8----------------------------------------------------|
C#|-------------|----------------------------------------------------------------|


[Chorus]

D#|------------------------------------|-------------------------------------------|
A#|------------------------------------|-------------------------------------------|
F#|---------5---------5----------------|-------------------------------------------|
C#|-0-1h2p1-x-0-1h2p1-x--0-1-0-1-/-6---|-0-0-1-2-1-0-0-1-2-1--0-0-1-0-1-0-0-1-0-1--|
G#|-0-1h2p1-3-0-1h2p1-3--0-1-0-1-/-6---|-0-0-1-2-1-0-0-1-2-1--0-0-1-0-1-0-0-1-0-1--|
C#|-0-1h2p1---0-1h2p1----0-1-0-1-/-6---|-0-0-1-2-1-0-0-1-2-1--0-0-1-0-1-0-0-1-0-1--|

(1:34 with flanger)
D#|------------------------------------------------------------------------------|
A#|------------------------------------------------------------------------------|
F#|---8------------8-------------------------------------------------------------|
C#|--------7-------------7-------------------------------------------------------|
G#|-6--6-5---5-5-6---6-5---5-----------------------------------------------------|
C#|------------------------------------------------------------------------------|


[Chorus]


D#|------------------------------------|-------------------------------------------|
A#|------------------------------------|-------------------------------------------|
F#|---------5---------5----------------|-------------------------------------------|
C#|-0-1h2p1-x-0-1h2p1-x--0-1-0-1-/-6---|-0-0-1-2-1-0-0-1-2-1--0-0-1-0-1-0-0-1-0-1--|
G#|-0-1h2p1-3-0-1h2p1-3--0-1-0-1-/-6---|-0-0-1-2-1-0-0-1-2-1--0-0-1-0-1-0-0-1-0-1--|
C#|-0-1h2p1---0-1h2p1----0-1-0-1-/-6---|-0-0-1-2-1-0-0-1-2-1--0-0-1-0-1-0-0-1-0-1--|

(2:03)
D#|--------------------------------|---------------------------------------------|
A#|--------------------------------|---------------------------------------------|
F#|--------------------------------|---------------------------------------------|
C#|--------------------------------|-0-0-0-12-0-0-12-0-0-12-0-10-10--------------|
G#|-0-0-0-5-0-0-5-0-0-5-0-3-3------|-0-0-0-12-0-0-12-0-0-12-0-10-10--------------|
C#|-0-0-0-0-0-0-0-0-0-0-0-0-0------|-0-0-0-12-0-0-12-0-0-12-0-10-10--------------|

(2:44)
D#|------------------------------------------------------------------------------|
A#|------------------------------------------------------------------------------|
F#|------------------------------------------------------------------------------|
C#|-0-x-x-x-6-6-6-4-----0-x-x-x-6-6-6-8------------------------------------------|
G#|-0-x-x-x-6-6-6-4-----0-x-x-x-6-6-6-8------------------------------------------|
C#|-0-x-x-x-6-6-6-4-----0-x-x-x-6-6-6-8------------------------------------------|


(back to this)
D#|-------------|----------------------------------------------------------------|
A#|-------------|----------------------------------------------------------------|
F#|-8---7---5---|--8---7---10----------------------------------------------------|
C#|-8---7---5---|--8---7---10----------------------------------------------------|
G#|-6---5---3---|--6---5----8----------------------------------------------------|
C#|-------------|----------------------------------------------------------------|


[Outro]

D#|------------------------------------|------------------------------------------|
A#|------------------------------------|------------------------------------------|
F#|---------5---------5----------------|------------------------------------------|
C#|-0-1h2p1-x-0-1h2p1-x--0-1-0-1-/-6---|-0-0-1-2-1-0-0-1-2-1--0-0-1-0-1-0-0-1-0-1-|
G#|-0-1h2p1-3-0-1h2p1-3--0-1-0-1-/-6---|-0-0-1-2-1-0-0-1-2-1--0-0-1-0-1-0-0-1-0-1-|
C#|-0-1h2p1---0-1h2p1----0-1-0-1-/-6---|-0-0-1-2-1-0-0-1-2-1--0-0-1-0-1-0-0-1-0-1-|            
Submit corrections


        Comin Back lessons Hard to play? Try these video lessons and learn fast Comin Back lessons
        
↑ Back to top | Tablatures and chords for acoustic guitar and electric guitar, ukulele, drums are parodies/interpretations of the original songs. You may use it for private study, scholarship, research or language learning purposes only