» » »

Rend Collective Experiment - Every Giant Will Fall Tabs

Artists:  A B C D E F G H I J K L M N O P Q R S T U V W X Y Z # 

Every Giant Will Fall Tabs

(ver. 2) Click to play this song!
Rend Collective Experiment
 Rating:
4.1/5 (31 vote)

 Every Giant Will Fall  lessons Tabs too difficult? Try these video lessons and learn fast
 
                Capo 6 

[Intro]

e|---------------------------------------------------------------------------|
B|-------0-----------0-----------0---------0---------------------------------|
G|----------1-----------1-----------1----------------------------------------|
D|-----2-----2-----2-----2-----2-----2--2h4-4-4-2----------------------------|
A|--4-----------0------------------------------------------------------------|
E|--------------------------0------------------------------------------------|

e|---------------------------------------------------------------------------|
B|-------0-----------0-----------0-------------------------------------------|
G|----------1-----------1-----------1----------------------------------------|
D|-----2-----2-----2-----2-----2---------------------------------------------|
A|--4-----------0---------------------2h4-2----------------------------------|
E|--------------------------0------------------------------------------------|
             
Submit corrections


        Every Giant Will Fall  lessons Hard to play? Try these video lessons and learn fast Every Giant Will Fall  lessons
        
↑ Back to top | Tablatures and chords for acoustic guitar and electric guitar, ukulele, drums are parodies/interpretations of the original songs. You may use it for private study, scholarship, research or language learning purposes only