» » »

Rend Collective Experiment - Every Giant Will Fall Tabs

Artists:  A B C D E F G H I J K L M N O P Q R S T U V W X Y Z # 

Every Giant Will Fall Tabs

(ver. 1) Click to play this song!
Rend Collective Experiment
 Rating:
2.7/5 (30 votes)

 Every Giant Will Fall  lessons Tabs too difficult? Try these video lessons and learn fast
 
                E -------------------------------------------------------------------------|
B --------3----------------3--------------3---------------3----------------|
G -----0-----0----------0-----0--------0-----0---------------(0)-----------|
D -------------------------------------------------------------------------|
A --2-----------(2)--3----------(3)-----------------2--H3-----3--P2--------|
E ----------------------------------3-----------(3)-------------------3----|

E -------------------------------------------------------------------------|
B --------3----------------3--------------3--------------------------------|
G -----0-----0----------0-----0--------0-----0-----------------------------|
D -------------------------------------------------------------------------|
A --2-----------(2)--3----------(3)-----------------2--H3------------------|
E ----------------------------------3-----------(3)---------3--------------|            
Submit corrections


        Every Giant Will Fall  lessons Hard to play? Try these video lessons and learn fast Every Giant Will Fall  lessons
        
↑ Back to top | Tablatures and chords for acoustic guitar and electric guitar, ukulele, drums are parodies/interpretations of the original songs. You may use it for private study, scholarship, research or language learning purposes only