» » »

Refused - Summer Holidays Vs. Punk Routine Tabs

Artists:  A B C D E F G H I J K L M N O P Q R S T U V W X Y Z # 

Summer Holidays Vs. Punk Routine Tabs

(ver. 1) Click to play this song!
Refused
 Rating:
4/5 (4 votes)

 Summer Holidays Vs. Punk Routine lessons Tabs too difficult? Try these video lessons and learn fast
 
                REFUSED - "Summer holiday vs punk routine"
The shape of punk to come
 
_|Riff1______________|Riff1.1_____________
e|-------------------|-------------------|
B|-------------------|-------------------|
G|11-x-11-x-x-x-11-x-|11-x-11-x-x-x-11---|
D|-------------------|-------------------|
A|-------------------|-------------------|
E|-------------------|-------------------|
¯¯¯¯¯¯¯¯¯¯¯¯¯¯¯¯¯¯¯¯¯¯¯¯¯¯¯¯¯¯¯¯¯¯¯¯¯¯¯¯¯¯
_|Riff2_______________________________________________________________
e|----------------|----------------|----------------|----------------|
B|----------------|----------------|----------------|----------------|
G|1111111111111111|9-9-9-9-9-9-9-9-|7-7-7-7-7-7-7-7-|5-5-5-5-4-4-4-4-|
D|----------------|----------------|----------------|----------------|
A|9-9-9-9-9-9-9-9-|7-7-7-7-7-7-7-7-|5-5-5-5-5-5-5-5-|3-3-3-3-2-2-2-2-|
E|----------------|----------------|----------------|----------------|
¯¯¯¯¯¯¯¯¯¯¯¯¯¯¯¯¯¯¯¯¯¯¯¯¯¯¯¯¯¯¯¯¯¯¯¯¯¯¯¯¯¯¯¯¯¯¯¯¯¯¯¯¯¯¯¯¯¯¯¯¯¯¯¯¯¯¯¯¯¯
_|Riff3___________________________________________________
e|----------------|-------------------|------------------|
B|----------------|-------------------|------------------|
G|--9-9-9---------|--9-9-9-12-12-9-12-|--111111----------|
D|----------------|-------------------|----------12---12-|
A|--7-7-7---------|--7-7-7-10-10-7-10-|--9-9-9---12---12-|
E|----------0---0-|-------------------|------------------|
¯¯¯¯¯¯¯¯¯¯¯¯¯¯¯¯¯¯¯¯¯¯¯¯¯¯¯¯¯¯¯¯¯¯¯¯¯¯¯¯¯¯¯¯¯¯¯¯¯¯¯¯¯¯¯¯¯¯
_________________________
e|----------------------|
B|----------------------|
G|-----------------12---|
D|----------------------|
A|--12-12-12-12-12-10---|
E|--12-12-12-12-12------|
¯¯¯¯¯¯¯¯¯¯¯¯¯¯¯¯¯¯¯¯¯¯¯¯¯
_|Riff3.1_________________________________________________
e|----------------|-------------------|------------------|
B|----------------|-------------------|------------------|
G|--9-9-9---------|--9-9-9-12-12-9-12-|--111111----------|
D|----------------|-------------------|----------12---12-|
A|--7-7-7---------|--7-7-7-10-10-7-10-|--9-9-9---12---12-|
E|----------0---0-|-------------------|------------------|
¯¯¯¯¯¯¯¯¯¯¯¯¯¯¯¯¯¯¯¯¯¯¯¯¯¯¯¯¯¯¯¯¯¯¯¯¯¯¯¯¯¯¯¯¯¯¯¯¯¯¯¯¯¯¯¯¯¯
________________________
e|---------------------|
B|---------------------|
G|---------------------|
D|--10-10-10-10-9-10-9-|
A|--10-10-10-10-9-10-9-|
E|--8--8--8--8--7-8--7-|
¯¯¯¯¯¯¯¯¯¯¯¯¯¯¯¯¯¯¯¯¯¯¯¯
_|Riff4___________________________________________________________________
e|----------------|----------------|------------------|------------------|
B|----------------|----------------|------------------|------------------|
G|--9-9-9---------|--9-9-9---------|--111111----------|--111111----------|
D|----------------|----------------|----------12---12-|----------12---12-|
A|--7-7-7---------|--7-7-7---------|--9-9-9---12---12-|--9-9-9---12---12-|
E|----------0---0-|----------0---0-|------------------|------------------|
¯¯¯¯¯¯¯¯¯¯¯¯¯¯¯¯¯¯¯¯¯¯¯¯¯¯¯¯¯¯¯¯¯¯¯¯¯¯¯¯¯¯¯¯¯¯¯¯¯¯¯¯¯¯¯¯¯¯¯¯¯¯¯¯¯¯¯¯¯¯¯¯¯¯
_|Riff4.1______________________________________________
e|----------------|----------------|------------------|
B|----------------|----------------|------------------|
G|--9-9-9---------|--9-9-9---------|--111111----------|
D|----------------|----------------|----------12---12-|
A|--7-7-7---------|--7-7-7---------|--9-9-9---12---12-|
E|----------0---0-|----------0---0-|------------------|
¯¯¯¯¯¯¯¯¯¯¯¯¯¯¯¯¯¯¯¯¯¯¯¯¯¯¯¯¯¯¯¯¯¯¯¯¯¯¯¯¯¯¯¯¯¯¯¯¯¯¯¯¯¯¯
___________________________
e|----------------------|--
B|----------------------|--
G|-----------------12---|10>
D|----------------------|--
A|--12-12-12-12-12-10---|9>
D|--12-12-12-12-12------|--
¯¯¯¯¯¯¯¯¯¯¯¯¯¯¯¯¯¯¯¯¯¯¯¯¯¯¯
X> fade out (natural)

_|Riff4.2_______________________________________________________________
e|----------------|----------------|----------------|----------------|-.
B|----------------|----------------|----------------|----------------|-.
G|--9-9-9---------|--9-9-9---------|--111111119-9-9-|9-7-7-7-7-5-5-4-|4.
D|----------------|----------------|----------------|----------------|-.
A|--7-7-7---------|--7-7-7---------|--9-9-9-9-7-7-7-|7-5-5-5-5-3-3-2-|2.
D|----------0---0-|----------0---0-|----------------|----------------|-.
¯¯¯¯¯¯¯¯¯¯¯¯¯¯¯¯¯¯¯¯¯¯¯¯¯¯¯¯¯¯¯¯¯¯¯¯¯¯¯¯¯¯¯¯¯¯¯¯¯¯¯¯¯¯¯¯¯¯¯¯¯¯¯¯¯¯¯¯¯¯¯¯
_|Riff5_______________________________________________________________
e|----------------|----------------|----------------|----------------|
B|----------------|----------------|----------------|----------------|
G|>11-------------|>9--------------|>7--------------|>5------>4------|
D|----------------|----------------|----------------|----------------|
A|>9--------------|>7--------------|>5--------------|>3------>2------|
E|----------------|----------------|----------------|----------------|
¯¯¯¯¯¯¯¯¯¯¯¯¯¯¯¯¯¯¯¯¯¯¯¯¯¯¯¯¯¯¯¯¯¯¯¯¯¯¯¯¯¯¯¯¯¯¯¯¯¯¯¯¯¯¯¯¯¯¯¯¯¯¯¯¯¯¯¯¯¯
>x Fade in (volume control)

_|Riff6_____________________________________________________________________
e|-----------------------|----------------|----------------|---------------|
B|-----------------------|----------------|----------------|---------------|
G|11-11-11-11-11-11-11-5-|--5-5-5-5-5-5-5-|7-7-7-7-7-7-7-7-|7-7-7-7-7-7-7-7|
D|12-12-12-12-12-12-12-7-|--7-7-7-7-7-7-7-|7-7-7-7-7-7-7-7-|7-7-7-7-7-7-7-7|
A|-----------------------|----------------|----------------|---------------|
E|-----------------------|----------------|----------------|---------------|
¯¯¯¯¯¯¯¯¯¯¯¯¯¯¯¯¯¯¯¯¯¯¯¯¯¯¯¯¯¯¯¯¯¯¯¯¯¯¯¯¯¯¯¯¯¯¯¯¯¯¯¯¯¯¯¯¯¯¯¯¯¯¯¯¯¯¯¯¯¯¯¯¯¯¯¯
_|Riff7_______________________________
e|0---------------|0---------------|0>
B|0---------------|0---------------|0>
G|5---------------|7---------------|9>
D|5---------------|7---------------|9>
A|3---------------|5---------------|7>
E|0---------------|0---------------|0>
¯¯¯¯¯¯¯¯¯¯¯¯¯¯¯¯¯¯¯¯¯¯¯¯¯¯¯¯¯¯¯¯¯¯¯¯¯¯
_|Riff8________________________________________________________________
e|----------------|----------------|-----------------|----------------|
B|----------------|----------------|-----------------|----------------|
G|----------------|----------------|(7(7-7-7-7-7-7-7-|5-5-5-5-4-4-4.--|
D|----------------|----------------|(7(7-7-7-7-7-7-7-|5-5-5-5-4-4-4.--|
A|----------------|----------------|(5(5-5-5-5-5-5-5-|3-3-3-3-2-2-2.--|
E|----------------|----------------|-----------------|----------------|
¯¯¯¯¯¯¯¯¯¯¯¯¯¯¯¯¯¯¯¯¯¯¯¯¯¯¯¯¯¯¯¯¯¯¯¯¯¯¯¯¯¯¯¯¯¯¯¯¯¯¯¯¯¯¯¯¯¯¯¯¯¯¯¯¯¯¯¯¯¯¯
            
Submit corrections


        Summer Holidays Vs. Punk Routine lessons Hard to play? Try these video lessons and learn fast Summer Holidays Vs. Punk Routine lessons
        
↑ Back to top | Tablatures and chords for acoustic guitar and electric guitar, ukulele, drums are parodies/interpretations of the original songs. You may use it for private study, scholarship, research or language learning purposes only