» » »

Refused - New Noise Tabs

Artists:  A B C D E F G H I J K L M N O P Q R S T U V W X Y Z # 

New Noise Tabs

(ver. 1) Click to play this song!
Refused
 Rating:
3.4/5 (10 votes)

 New Noise lessons Tabs too difficult? Try these video lessons and learn fast
 
                 _|Riff1_______________________________________________________________
 e|----------------|----------------(3---------------|----------------|
 B(3(5(5(5(5(5(3(5-(5(5(5(5(3(5(5(5-|-(5(3(5(5(5(5(5-(3(5(5(5(5(5(3(5-|
 G|----------------|----------------|----------------|----------------|
 D|----------------|----------------|----------------|----------------|
 A|----------------|----------------|----------------|----------------|
 D|----------------|----------------|----------------|----------------|
 ¯¯¯¯¯¯¯¯¯¯¯¯¯¯¯¯¯¯¯¯¯¯¯¯¯¯¯¯¯¯¯¯¯¯¯¯¯¯¯¯¯¯¯¯¯¯¯¯¯¯¯¯¯¯¯¯¯¯¯¯¯¯¯¯¯¯¯¯¯¯
 ______________________________________________________________________
 e|----------------|----------------|----------------|0-0-0-0-0-0-0-0-|
 B(7(5(3(5(5(5(5(5-(3(5(5(5(5(5(3(5-(6(5(3(5(5(5(5(5-|5-5-5-5-5-5-5-5-|
 G|----------------|----------------|----------------|----------------|
 D|----------------|----------------|----------------|----------------|
 A|----------------|----------------|----------------|----------------|
 D|----------------|----------------|----------------|----------------|
 ¯¯¯¯¯¯¯¯¯¯¯¯¯¯¯¯¯¯¯¯¯¯¯¯¯¯¯¯¯¯¯¯¯¯¯¯¯¯¯¯¯¯¯¯¯¯¯¯¯¯¯¯¯¯¯¯¯¯¯¯¯¯¯¯¯¯¯¯¯¯
 (x Palm muted

 _|Riff2____________________________|Riff2.1___________________________
 e|----------------|----------------|----------------|----------------|
 B|----------------|----------------|----------------|----------------|
 G|----------------|----------------|----------------|----------------|
 D|----------------|----------------|----------------|----------------|
 A|----------------|----------------|----------------|----------------|
 D|0-2-2-2-2-2-0-2-|3-2-0-3---------|0-2-2-2-2-2-0-2-|3-2-0.----------|
 ¯¯¯¯¯¯¯¯¯¯¯¯¯¯¯¯¯¯¯¯¯¯¯¯¯¯¯¯¯¯¯¯¯¯¯¯¯¯¯¯¯¯¯¯¯¯¯¯¯¯¯¯¯¯¯¯¯¯¯¯¯¯¯¯¯¯¯¯¯¯

 _|Riff3____________________________|Riff3.1___________________________
 e|----------------|----------------|----------------|----------------|
 B|----------------|----------------|----------------|----------------|
 G|----------------|----------------|----------------|----------------|
 D|0-2-2-2-2-2-0-2-|3-2-0-3---------|0-2-2-2-2-2-0-2-|3-2-0.----------|
 A|0-2-2-2-2-2-0-2-|3-2-0-3---------|0-2-2-2-2-2-0-2-|3-2-0.----------|
 D|0-2-2-2-2-2-0-2-|3-2-0-3---------|0-2-2-2-2-2-0-2-|3-2-0.----------|
 ¯¯¯¯¯¯¯¯¯¯¯¯¯¯¯¯¯¯¯¯¯¯¯¯¯¯¯¯¯¯¯¯¯¯¯¯¯¯¯¯¯¯¯¯¯¯¯¯¯¯¯¯¯¯¯¯¯¯¯¯¯¯¯¯¯¯¯¯¯¯

 _|Riff4_______________________________________________________________
 e|----------------|----------------|----------------|----------------|
 B|----------------|----------------|----------------|----------------|
 G|----------------|4---------------|3---------------|----------------|
 D|2---------------|2---------------|4---------------|----------------|
 A|2---------------|2---------------|2---------------|----------------|
 D|2---------------|----------------|----------------|----------------|
 ¯¯¯¯¯¯¯¯¯¯¯¯¯¯¯¯¯¯¯¯¯¯¯¯¯¯¯¯¯¯¯¯¯¯¯¯¯¯¯¯¯¯¯¯¯¯¯¯¯¯¯¯¯¯¯¯¯¯¯¯¯¯¯¯¯¯¯¯¯¯
 ______________________________________________________________________
 e|----------------|----------------|----------------|----------------|
 B|----------------|----------------|----------------|----------------|
 G|----------------|3---------------|4---------------|----------------|
 D|2---------------|4---------------|4---------------|----------------|
 A|2---------------|2---------------|2---------------|----------------|
 D|2---------------|----------------|----------------|----------------|
 ¯¯¯¯¯¯¯¯¯¯¯¯¯¯¯¯¯¯¯¯¯¯¯¯¯¯¯¯¯¯¯¯¯¯¯¯¯¯¯¯¯¯¯¯¯¯¯¯¯¯¯¯¯¯¯¯¯¯¯¯¯¯¯¯¯¯¯¯¯
 _|Riff5_:o)___________________________________________________________
 e|----------------|----------------|----------------|----------------|
 B|----------------|----------------|----------------|----------------|
 G|4---4-4-4-4-4-4-|4---4-4-4-4-2-2-|3---3-3-3-3-3-3-|3---3-3-3-3-3-3-|
 D|2---2-2-2-2-2-2-|2---2-2-2-2-2-2-|4---4-4-4-4-4-4-|4---4-4-4-4-4-4-|
 A|2---2-2-2-2-2-2-|2---2-2-2-2-2-2-|2---2-2-2-2-2-2-|2---2-2-2-2-2-2-|
 D|2---2-2-2-2-2-2-|----------------|----------------|----------------|
 ¯¯¯¯¯¯¯¯¯¯¯¯¯¯¯¯¯¯¯¯¯¯¯¯¯¯¯¯¯¯¯¯¯¯¯¯¯¯¯¯¯¯¯¯¯¯¯¯¯¯¯¯¯¯¯¯¯¯¯¯¯¯¯¯¯¯¯¯¯¯
 ______________________________________________________________________
 e|----------------|----------------|----------------|----------------|
 B|----------------|----------------|----------------|----------------|
 G|4---4-4-4-4-4-4-|3---3-3-3-3-3-3-|----------------|----------------|
 D|2---2-2-2-2-2-2-|4---4-4-4-4-4-4-|9---9-9-9-9-9-9-|9---9-9-9-9-9-9-|
 A|2---2-2-2-2-2-2-|2---2-2-2-2-2-2-|9---9-9-9-9-9-9-|9---9-9-9-9-9-9-|
 D|2---2-2-2-2-2-2-|----------------|9---9-9-9-9-9-9-|9---9-9-9-9-9-9-|
 ¯¯¯¯¯¯¯¯¯¯¯¯¯¯¯¯¯¯¯¯¯¯¯¯¯¯¯¯¯¯¯¯¯¯¯¯¯¯¯¯¯¯¯¯¯¯¯¯¯¯¯¯¯¯¯¯¯¯¯¯¯¯¯¯¯¯¯¯¯¯

 _|Riff5.1______________________________________________________________
 e|----------------|----------------|----------------|----------------|
 B|----------------|----------------|----------------|----------------|
 G|----------------|----------------|----------------|----------------|
 D|7---7-7-7-7-7-7-|7---7-7-7-7-7-7-|5---5-5-5-5-5-5-|5---5-5-5-5-5-5-|
 A|7---7-7-7-7-7-7-|7---7-7-7-7-7-7-|5---5-5-5-5-5-5-|5---5-5-5-5-5-5-|
 D|7---7-7-7-7-7-7-|7---7-7-7-7-7-7-|5---5-5-5-5-5-5-|5---5-5-5-5-5-5-|
 ¯¯¯¯¯¯¯¯¯¯¯¯¯¯¯¯¯¯¯¯¯¯¯¯¯¯¯¯¯¯¯¯¯¯¯¯¯¯¯¯¯¯¯¯¯¯¯¯¯¯¯¯¯¯¯¯¯¯¯¯¯¯¯¯¯¯¯¯¯¯
 ____________________________________
 e|----------------|----------------|
 B|----------------|----------------|
 G|----------------|----------------|
 D|3---3-3---3-3---|3---3---3-3-3-3-|
 A|3---3-3---3-3---|3---3---3-3-3-3-|
 D|3---3-3---3-3---|3---3---3-3-3-3-|
 ¯¯¯¯¯¯¯¯¯¯¯¯¯¯¯¯¯¯¯¯¯¯¯¯¯¯¯¯¯¯¯¯¯¯¯¯

 _|Riff6____________________________|Riff6.1_____________________________
 e|----------------|----------------|----------------|----------------|-.
 B|----------------|----------------|----------------|----------------|-.
 G|----------------|----------------|----------------|----------------|-.
 D|0-2.--------0-2.|--2.------------|2-----2-----9---|------------0---|2.
 A|0-2.--------0-2.|--2.------------|2-----2-----9---|------------0---|2.
 D|0-2.--------0-2.|--2.------------|2-----2-----9---|------------0---|2.
 ¯¯¯¯¯¯¯¯¯¯¯¯¯¯¯¯¯¯¯¯¯¯¯¯¯¯¯¯¯¯¯¯¯¯¯¯¯¯¯¯¯¯¯¯¯¯¯¯¯¯¯¯¯¯¯¯¯¯¯¯¯¯¯¯¯¯¯¯¯¯¯¯
 _|Riff7_____________________________|Riff7.1___________________________
 e|-----------------|----------------|----------------|----------------|
 B|-----------------|----------------|----------------|----------------|
 G|-----------------|----------------|----------------|----------------|
 D|(2---------------|----------------|----------------|-------2--2.----|
 A|(2---------------|----------------|----------------|-------2--2.----|
 D|(2---------------|----------------|----------------|-------2--2.----|
 ¯¯¯¯¯¯¯¯¯¯¯¯¯¯¯¯¯¯¯¯¯¯¯¯¯¯¯¯¯¯¯¯¯¯¯¯¯¯¯¯¯¯¯¯¯¯¯¯¯¯¯¯¯¯¯¯¯¯¯¯¯¯¯¯¯¯¯¯¯¯¯
            
Submit corrections


        New Noise lessons Hard to play? Try these video lessons and learn fast New Noise lessons
        
↑ Back to top | Tablatures and chords for acoustic guitar and electric guitar, ukulele, drums are parodies/interpretations of the original songs. You may use it for private study, scholarship, research or language learning purposes only