» » »

Refused - Rather Be Dead Tabs

Artists:  A B C D E F G H I J K L M N O P Q R S T U V W X Y Z # 

Rather Be Dead Tabs

(ver. 2) Click to play this song!
Refused
 Rating:
4.4/5 (7 votes)

 Rather Be Dead lessons Tabs too difficult? Try these video lessons and learn fast
 
                INTRO PART 1/VERSE (palm muting) (X4)

e|--------------------------------------------|
B|--------------------------------------------|
G|--------------------------------------------|
D|--------------------------------------------|
A|--------------------------------------------|
E|-0-0----0-0----0-0-0----0-0----0------------|

INTRO PART 2 (X4)

e|--------------------------------------------|
B|--------------------------------------------|
G|--------------------------------------------|
D|--------------------------------------------|
A|-2----------3-----5-------------------------|
E|-0----------1-----3-------------------------|

VERSE (X4) (rather be dead than alive for your oppression...)

e|--------------------------------------------|
B|--------------------------------------------|
G|--------------------------------------------|
D|--------------------------------------------|
A|--------------------------------------------|
E|-0-0----0-0----0-0-0----0-0----0------------|

on the last time...
e|---------------------------------------------|
B|---------------------------------------------|
G|---------------------------------------------|
D|-----------------------------------------9---|
A|---------------------------------------7---7-|
E|-0-0----0-0----0-0-0----0(harmonics)-9-------|

CHORUS (X4)

e|------------------|
B|------------------|
G|------------------|
D|------------------|
A|-8-8-8-7--2-------|
E|-6-6-6-5-0--------|

REPEAT VERSE (X4)

REPEAT CHORUS (let the guitar hum out after you hit the last open note)

BRIDGE PART 1

little guitar solo part
e|--------------------------------------------------------|
B|--------------------------------------------------------|
G|--------------------------------------------------------|
D|-2---------234--------345----------9--5--5--4--7--4-----|
A|--------------------------------------------------------|
E|--------------------------------------------------------|

BRIDGE PART 2 (X8)

for the first 4 measures of the second part of the bridge, palm mute and gradually get take your pal off the guitar to get louder.

e|---------------------------------|
B|---------------------------------|
G|---------------------------------|
D|-----------------5-5-5-5-7-7-7-7-|
A|-9-9-9-2-2-3-2-2-3-3-3-3-5-5-5-5-|
E|-7-7-7-0-0-1-0-0-----------------|

REPEAT CHORUS (X4)

stop and let the drummer do that fill and then go back into the intro/verse

REPEAT VERSE (X4)

REPEATE CHORUS (X1)
            
Submit corrections


        Rather Be Dead lessons Hard to play? Try these video lessons and learn fast Rather Be Dead lessons
        
↑ Back to top | Tablatures and chords for acoustic guitar and electric guitar, ukulele, drums are parodies/interpretations of the original songs. You may use it for private study, scholarship, research or language learning purposes only