» » »

Red Hot Chili Peppers - Zephyr Song Slane Castle Tabs

Artists:  A B C D E F G H I J K L M N O P Q R S T U V W X Y Z # 

Zephyr Song Slane Castle Tabs

(ver. 1) Click to play this song!
Red Hot Chili Peppers
 Rating:
4.2/5 (30 votes)

 Zephyr Song Slane Castle  lessons Tabs too difficult? Try these video lessons and learn fast
 
                [Intro]
e|------------------------------------------------------------------------------------|
B|------------------------------------------------------------------------------------|
G|-------12--------10--------4------5h7-5------------9--10-12-10p9--------7-9-10-9p7--|
D|----10---------9---------5-------7--------------10--------------10-----9----------9-|
A|-12---------10---------7-------8-------------12----------------------10-------------|
E|------------------------------------------------------------------------------------|

e|-----------------------------------|
B|---------------------------8-------|
G|----4-5--7-5p4--------5-7/9-9/7-5--|
D|---5-----------5-----7-------------|
A|--7-----------------8--------------|
E|-----------------------------------|

[Verse]
e|-----------------------------------------------------------------|
B|-----------------------------------------------------------------|
G|-----9--12-10-9------7--10-9-7------4--7-5-4------5-7/9-7-5-4-5--|
D|---10-10------------9-9------------5-5-----------7---------------|
A|-12---------------10--------------7-------------8----------------|
E|-----------------------------------------------------------------|

e|-----------------------------------------------------------------|
B|----------10-----------------------------------------------------|
G|-----9--12--9--------7--10-9-7------4--7-5-4------5----5---------|
D|---10-10------------9-9------------5-5-----------7----7----------|
A|-12---------------10--------------7-------------8----5-----------|
E|-----------------------------------------------------------------|

[Chorus 1, 2]
e|-----3--5--------3--5-|-------------------3-3-3-3--5-5-5--3-5-|
B|--7--3--5-----7--3--5-|--7-7-7-7-7-7-7-7--4-4-4-4--5-5-5--3-5-|
G|--7--4--6-----7--4--6-|--7-7-7-7-7-7-7-7--4-4-4-4--6-6-6--4-6-|
D|--7--5--7-----7--5--6-|--7-7-7-7-7-7-7-7--5-5-5-5--7-7-7--5-7-|
A|--5-----------5-------|--5-5-5-5-5-5-5-5----------------------|
E|----------------------|---------------------------------------|

e|----------------------------------|
B|----------------------------------|
G|-------------------3-3-3-3--5-5-5-|
B|--7-7-7-7-7-7-7-7--4-4-4-4--5-5-5-|
G|--7-7-7-7-7-7-7-7--4-4-4-4--6-6-6-|
D|--7-7-7-7-7-7-7-7--5-5-5-5--7-7-7-|
A|--5-5-5-5-5-5-5-5-----------------|
E|----------------------------------|

[Solo]
e|-17---20-20-20b-----------------------------------20b-20b--19-|
B|----------------20b--20-17-20-20b--20-17-20b-20b--------------|
G|--------------------------------------------------------------|
D|--------------------------------------------------------------|
A|--------------------------------------------------------------|
E|--------------------------------------------------------------|

e|-20p19---20p19----20p19---20p19---20p19----22--22---|
B|------17------17-------17------17------17--21b-21b--|
G|----------------------------------------------------|
D|----------------------------------------------------|
A|----------------------------------------------------|
E|----------------------------------------------------|

[Chorus 3]
e|-5-5-5-5-5-5-5-5--x-x-x-x-x-x-x-x--0-0-0-0-0-0-0-0--x-x-x-x-x-x-x-x-x-|
B|-5-5-5-5-5-5-5-5--3-3-3-3-3-3-3-3--0-0-0-0-0-0-0-0--1-1-1-1-1-1-1-1-1-|
G|-5-5-5-5-5-5-5-5--4-4-4-4-4-4-4-4--0-0-0-0-0--0-0---2-2-2-2-2-2-2-2-2-|
D|-7-7-7-7-7-7-7-7--5-5-5-5-5-5-5-5--2-2-2-2-2-2-2-2--3-3-3-3-3-3-3-3-3-|
A|-7-7-7-7-7-7-7-7--5-5-5-5-5-5-5-5--2-2-2-2-2-2-2-2--3-3-3-3-3-3-3-3-3-|
E|------------------x-x-x-x-x-x-x-x--0-0-0-0-0-0-0-0--x-x-x-x-x-x-x-x-x-|

[Outro]
e|-15-14------------15-14-15-15--15---------14b-----------17-15-14-15-15--15-15b-15h17-17b-------------------|
B|-------15--15-15------------------15b--15-----15-15--15----------------------------------------------------|
G|-----------------------------------------------------------------------------------------------------------|
D|-----------------------------------------------------------------------------------------------------------|
A|-----------------------------------------------------------------------------------------------------------|
E|-----------------------------------------------------------------------------------------------------------|

e|-15-14-14--17-15-14-15-15--15-----17-----14-15-14-17-15-14-14b---------------------------------------------|
B|-------------------------------15b--b15------------------------15---------------14h15h14---14h15h14--15----|
G|------------------------------------------------------------------12-12-12-/14-----------14----------18----|
D|-----------------------------------------------------------------------------------------------------------|
A|-----------------------------------------------------------------------------------------------------------|
E|-----------------------------------------------------------------------------------------------------------|            
Submit corrections


        Zephyr Song Slane Castle  lessons Hard to play? Try these video lessons and learn fast Zephyr Song Slane Castle  lessons
        
↑ Back to top | Tablatures and chords for acoustic guitar and electric guitar, ukulele, drums are parodies/interpretations of the original songs. You may use it for private study, scholarship, research or language learning purposes only