Home » R » Red Hot Chili Peppers »

Red Hot Chili Peppers - Tuesday Night In Berlin Tabs

Artists:  A B C D E F G H I J K L M N O P Q R S T U V W X Y Z # 

Tuesday Night In Berlin Tabs

(ver. 1) Click to play this song!
Red Hot Chili Peppers
 Rating:
4.3/5 (16 votes)
                0:12
e|-10--12--------------------------------------------------------------------|
B|----------10------8h10-----10---10-----------------------------------------|
G|---------------------------------------------------------------------------|
D|---------------------------------------------------------------------------|
A|---------------------------------------------------------------------------|
E|---------------------------------------------------------------------------|

0:23
e|----------------------------------------------10--10-10-10--10-------------|
B|-10-------------------10------10-10-10-13----------------------13-10-10----|
G|----12-9---9----9-12-------------------------------------------------------|
D|-------------12------------------------------------------------------------|
A|---------------------------------------------------------------------------|
E|---------------------------------------------------------------------------|

0:33
e|-----------------------------------------------------------------------------|
B|-10--------------------------------------------------------------------------|
G|---12-9-10--9h10h9-----------------------------------------------------------|
D|------------------12--12h14h12-10-12----10h12p10----------------10h12---14-12|
A|-------------------------------------------------12-12----10h12--------------|
E|-----------------------------------------------------------------------------|

0:42
e|-----------------------------17-15-17---15-13-15--13-12-13--12-10-12--10-8---|
B|--------------13-15b17-15--------------------------------------------------10|
G|----12-14-14-----------------------------------------------------------------|
D|-12--------------------------------------------------------------------------|
A|-----------------------------------------------------------------------------|
E|-----------------------------------------------------------------------------|

0:52
e|-13------13---12--12--10-10----10p8----------------------------------------|
B|---10------10--10------------------10--------------------------------------|
G|---------------------------------------------------------------------------|
D|---------------------------------------------------------------------------|
A|---------------------------------------------------------------------------|
E|---------------------------------------------------------------------------|


1:01 (This part is played really fast)
e|------------------------------------------------------------------------------------|
B|-10----------------10------------13-13-10---------------10-------------13-----------|
G|----12-10-9-10-12-----12-10-9-10----------12-10-9-10-12----12-10-9-10-----12-10-9-10|
D|------------------------------------------------------------------------------------|
A|------------------------------------------------------------------------------------|
E|------------------------------------------------------------------------------------|

1:09
e|---------------------------------------------------------------------------|
B|---------------------------------18--18-17-15-15---------------------------|
G|-10s12--12s14-14-14--14s17-17-17-------------------------------------------|
D|---------------------------------------------------------------------------|
A|---------------------------------------------------------------------------|
E|---------------------------------------------------------------------------|


1:14
e|-13------13-----13-----13-----13---------------------------13--------------------|
B|---15------15-----15-----15-----15--------15------17---------15------------------|
G|------14-----14-----14-----14-----14------15------17-----------14-----15----17---|
D|------------------------------------------15------17----12-------------15----17--|
A|---------------------------------------13------15-------------------13-----15----|
E|---------------------------------------------------------------------------------|

1:21 Here Frusciante improvises with Dm, G# and C chords and the song goes on.....
e|---------------------------------------------------------------------------|
B|--6-6---------3-------5--------6-6----------3--------5---------------------|
G|---7----------------------------7------------------------------------------|
D|---------------------------------------------------------------------------|
A|-5----------1------3--------5-------------1-------3------------------------|
E|---------------------------------------------------------------------------|


And that's the intro to the most beautiful live performance I've ever heard!            
Submit corrections

↑ Back to top | Tablatures and chords for acoustic guitar and electric guitar, ukulele, drums are parodies/interpretations of the original songs. You may use it for private study, scholarship, research or language learning purposes only