» » »

Red Hot Chili Peppers - This Ticonderoga Tabs

Artists:  A B C D E F G H I J K L M N O P Q R S T U V W X Y Z # 

This Ticonderoga Tabs

(ver. 1) Click to play this song!
Red Hot Chili Peppers
 Rating:
4.3/5 (6 votes)

 This Ticonderoga  lessons Tabs too difficult? Try these video lessons and learn fast
 
                [Intro]

[Guitar 1 Distorted]

e|----------------------------------------------------------------|
B|----------------------------------------------------------------|
G|--5-5-5--5-5-5--5-5-5--5-5-5--3-3-3--3-3-3--5-5-5--5-5-5--------|
D|--5-5-5--5-5-5--5-5-5--5-5-5--3-3-3--3-3-3--5-5-5--5-5-5--------|
A|--3-3-3--3-3-3--3-3-3--3-3-3--1-1-1--1-1-1--3-3-3--3-3-3--------|
E|---------------------------------------------------------1/8~---|


[Verse] (0:08)

[Guitar 1 Distorted]

e|---------------------------------------------------------------|
B|---------------------------------------------------------------|
G|--5-5-5--5-5-5--5-5-5--5-5-5--3-3-3--3-3-3--5-5-5--5-5-5-------|
D|--5-5-5--5-5-5--5-5-5--5-5-5--3-3-3--3-3-3--5-5-5--5-5-5-------|    x2
A|--3-3-3--3-3-3--3-3-3--3-3-3--1-1-1--1-1-1--3-3-3--3-3-3-------|
E|---------------------------------------------------------------|

[Pre-Chorus] (0:22)

[Guitar 2 Distorted+Flanger+Huge Reverb]

Not so sure about the number of repetition in each note but you can guess listening the song.

e|-------------------------------------------------------------------------------------|
B|--16-16-16-16-16-16-16-15-15-15-15-15-15-15-13-13-13-13-13-11-11-13-13-13-13-13-13---|
G|-------------------------------------------------------------------------------------|
D|-------------------------------------------------------------------------------------|
A|-------------------------------------------------------------------------------------|
E|-------------------------------------------------------------------------------------|

[Verse] (0:37)

[Guitar 1 Distorted]

e|---------------------------------------------------------------|
B|---------------------------------------------------------------|
G|--5-5-5--5-5-5--5-5-5--5-5-5--3-3-3--3-3-3--5-5-5--5-5-5-------|
D|--5-5-5--5-5-5--5-5-5--5-5-5--3-3-3--3-3-3--5-5-5--5-5-5-------|    x2
A|--3-3-3--3-3-3--3-3-3--3-3-3--1-1-1--1-1-1--3-3-3--3-3-3-------|
E|---------------------------------------------------------------|
 Starts at (0:45)
e|--------------------------------|
B|--8-------------8---------------|
G|--10b12---------10b12-----------|
D|--------------------------------|
A|--------------------------------|
E|--------------------------------|

[Pre-Chorus] (0:52)

[Guitar 2 Distorted+Flanger+Huge Reverb]

e|-------------------------------------------------------------------------------------|
B|--16-16-16-16-16-16-16-15-15-15-15-15-15-15-13-13-13-13-13-11-11-13-13-13-13-13-13---|
G|-------------------------------------------------------------------------------------|
D|-------------------------------------------------------------------------------------|
A|-------------------------------------------------------------------------------------|
E|-------------------------------------------------------------------------------------|

Fill [Guitar 3 Clean+Reverb] (0:57)

e|------------------------------------------------------------------18--16-15--13--11~--|
B|--------------------------------------------------------------------------------------|
G|--------------------------------------------------------------------------------------|
D|--------------------------------------------------------------------------------------|
A|--------------------------------------------------------------------------------------|
E|--------------------------------------------------------------------------------------|


e|-------------------------------------------------------------------------------|
B|--16-16-16-16-16-16-16-15-15-15-15-15-15-15-13-13-13-13-13-11-11-13-13-18b19---|
G|-------------------------------------------------------------------------------|
D|-------------------------------------------------------------------------------|
A|-------------------------------------------------------------------------------|
E|-------------------------------------------------------------------------------|

[Chorus] (1:07]

At live perfomances Josh does chords in the chorus while the keyboard does the Guitar 4

[Guitar 4 Slighly distorted+Reverb] 

e|--13~---------------------------------------------------------11-13~----|
B|----------9-11-11/13-13~-----9-11-11/13-13~-----9-12~~--12-13-----------|
G|-------10-----------------10-----------------10-------------------------|
D|------------------------------------------------------------------------|
A|------------------------------------------------------------------------|
E|------------------------------------------------------------------------|

[Guitar 5 Clean]

e|--------10---------8-------------------------------------------------------------|
B|--------10---------9--------6-----------------------4-------7-------3---3-3-3~---|
G|--------10--10--10-10-------7-------8h10p8----------5-------7-------4---4-4-4~---|
D|-10--10-----10--10-----8--8-8--8--8--------10--6--6-6--7--7-7--5--5-5---3-3-3~---|   
A|--x--x-------8--8------x--x----6--6------------x--x----5--5----x--x-----5-5-5~---|
E|--8--8-----------------6--6--------------------4--4------------3--3-----3-3-3~---|

[Guitar 4]

e|--13~----------------------------------------11~-------------------------|
B|----------9-11-11/13-13~-----9-11-11/13-13~------12~---------------------|
G|-------10-----------------10---------------------------12-13-12-10-12~---|
D|-------------------------------------------------------------------------|
A|-------------------------------------------------------------------------|
E|-------------------------------------------------------------------------|

[Guitar 5]

e|--------10---------8----------------------------------------------------|
B|--------10---------9--------6-----------------------4-------7-------3---|
G|--------10--10--10-10-------7-------8h10p8----------5-------7-------4---|
D|-10--10-----10--10-----8--8-8--8--8--------10--6--6-6--7--7-7--5--5-5---|   
A|--x--x-------8--8------x--x----6--6------------x--x----5--5----x--x-----|
E|--8--8-----------------6--6--------------------4--4------------3--3-----|

[Verse] (1:29)

[Guitar 1 Distorted]

e|---------------------------------------------------------------|
B|---------------------------------------------------------------|
G|--5-5-5--5-5-5--5-5-5--5-5-5--3-3-3--3-3-3--5-5-5--5-5-5-------|
D|--5-5-5--5-5-5--5-5-5--5-5-5--3-3-3--3-3-3--5-5-5--5-5-5-------|    x2
A|--3-3-3--3-3-3--3-3-3--3-3-3--1-1-1--1-1-1--3-3-3--3-3-3-------|
E|---------------------------------------------------------------|

[Pre-Chorus] (1:44)

[Guitar 2 Distorted+Flanger+Huge Reverb]

e|----------------------------------------------------------------------------18------------|
B|--16-16-16-16-16-16-16-15-15-15-15-15-15-15-13-13-13-13-13-11-11-13-13-18b19---19r18-16---|
G|------------------------------------------------------------------------------------------|
D|------------------------------------------------------------------------------------------|
A|------------------------------------------------------------------------------------------|
E|------------------------------------------------------------------------------------------|


e|-------------------------------------------------------------------------------|
B|--16-16-16-16-16-16-16-15-15-15-15-15-15-15-13-13-13-13-13-11-11-13-13-18b19---|
G|-------------------------------------------------------------------------------|
D|-------------------------------------------------------------------------------|
A|-------------------------------------------------------------------------------|
E|-------------------------------------------------------------------------------|

[Chorus] (1:58)

[Guitar 4 Slighly distorted+Reverb] 

e|--13~---------------------------------------------------------11-13~----|
B|----------9-11-11/13-13~-----9-11-11/13-13~-----9-12~~--12-13-----------|
G|-------10-----------------10-----------------10-------------------------|
D|------------------------------------------------------------------------|
A|------------------------------------------------------------------------|
E|------------------------------------------------------------------------|

[Guitar 5 Clean]

e|--------10---------8-------------------------------------------------------------|
B|--------10---------9--------6-----------------------4-------7-------3---3-3-3~---|
G|--------10--10--10-10-------7-------8h10p8----------5-------7-------4---4-4-4~---|
D|-10--10-----10--10-----8--8-8--8--8--------10--6--6-6--7--7-7--5--5-5---3-3-3~---|   
A|--x--x-------8--8------x--x----6--6------------x--x----5--5----x--x-----5-5-5~---|
E|--8--8-----------------6--6--------------------4--4------------3--3-----3-3-3~---|

[Guitar 4]

e|--13~----------------------------------------11~--------------11-13~----|
B|----------9-11-11/13-13~-----9-11-11/13-13~------12~----12-13-----------|
G|-------10-----------------10--------------------------------------------|
D|------------------------------------------------------------------------|
A|------------------------------------------------------------------------|
E|------------------------------------------------------------------------|

[Guitar 5]

e|--------10---------8----------------------------------------------------|
B|--------10---------9--------6-----------------------4-------7-------3---|
G|--------10--10--10-10-------7-------8h10p8----------5-------7-------4---|
D|-10--10-----10--10-----8--8-8--8--8--------10--6--6-6--7--7-7--5--5-5---|   
A|--x--x-------8--8------x--x----6--6------------x--x----5--5----x--x-----|
E|--8--8-----------------6--6--------------------4--4------------3--3-----|

[Guitar 4]

e|--13~---------------------------------------------------------11-13~----|
B|----------9-11-11/13-13~-----9-11-11/13-13~-----9-12~~--12-13-----------|
G|-------10-----------------10-----------------10-------------------------|
D|------------------------------------------------------------------------|
A|------------------------------------------------------------------------|
E|------------------------------------------------------------------------|

[Guitar 5]

e|--------10---------8-------------------------------------------------------------|
B|--------10---------9--------6-----------------------4-------7-------3---3-3-3~---|
G|--------10--10--10-10-------7-------8h10p8----------5-------7-------4---4-4-4~---|
D|-10--10-----10--10-----8--8-8--8--8--------10--6--6-6--7--7-7--5--5-5---3-3-3~---|   
A|--x--x-------8--8------x--x----6--6------------x--x----5--5----x--x-----5-5-5~---|
E|--8--8-----------------6--6--------------------4--4------------3--3-----3-3-3~---|

[Guitar 4]

e|--13~----------------------------------------11~-------|
B|----------9-11-11/13-13~-----9-11-11/13-13~------12~---|
G|-------10-----------------10---------------------------|
D|-------------------------------------------------------|
A|-------------------------------------------------------|
E|-------------------------------------------------------|


[Guitar 5]

e|--------10---------8----------------------------------------------------|
B|--------10---------9--------6-----------------------4-------7-------3---|
G|--------10--10--10-10-------7-------8h10p8----------5-------7-------4---|
D|-10--10-----10--10-----8--8-8--8--8--------10--6--6-6--7--7-7--5--5-5---|   
A|--x--x-------8--8------x--x----6--6------------x--x----5--5----x--x-----|
E|--8--8-----------------6--6--------------------4--4------------3--3-----|

[Guitar 4]

e|---------------------------------------------------------------------|
B|---------------------------------------------------------------------|
G|--12-13-12-10-12~----------------------------------------------------|
D|-------------------12-13-12-10-12~-----------------------------------|
A|------------------------------------10-11-10-8-10-8-6-8-6-5-6-5------|
E|-----------------------------------------------------------------8---|

[Verse] (2:47)

[Guitar 1 Distorted]

e|---------------------------------------------------------------|
B|---------------------------------------------------------------|
G|--5-5-5--5-5-5--5-5-5--5-5-5--3-3-3--3-3-3--5-5-5--5-5-5-------|
D|--5-5-5--5-5-5--5-5-5--5-5-5--3-3-3--3-3-3--5-5-5--5-5-5-------|    x2
A|--3-3-3--3-3-3--3-3-3--3-3-3--1-1-1--1-1-1--3-3-3--3-3-3-------|
E|---------------------------------------------------------------|

[Pre-Chorus] (3:02)

[Guitar 2 Distorted+Flanger+Huge Reverb]

e|----------------------------------------------------------------------------18------------|
B|--16-16-16-16-16-16-16-15-15-15-15-15-15-15-13-13-13-13-13-11-11-13-13-18b19---19r18-16---|
G|------------------------------------------------------------------------------------------|
D|------------------------------------------------------------------------------------------|
A|------------------------------------------------------------------------------------------|
E|------------------------------------------------------------------------------------------|


e|-------------------------------------------------------------------------------|
B|--16-16-16-16-16-16-16-15-15-15-15-15-15-15-13-13-13-13-13-11-11-13-13-18b19---|
G|-------------------------------------------------------------------------------|
D|-------------------------------------------------------------------------------|
A|-------------------------------------------------------------------------------|
E|-------------------------------------------------------------------------------|


[Verse] (3:17)

[Guitar 1 Distorted]

e|---------------------------------------------------------------|
B|---------------------------------------------------------------|
G|--5-5-5--5-5-5--5-5-5--5-5-5--3-3-3--3-3-3--5-5-5--5-5-5-------|
D|--5-5-5--5-5-5--5-5-5--5-5-5--3-3-3--3-3-3--5-5-5--5-5-5-------|    x2
A|--3-3-3--3-3-3--3-3-3--3-3-3--1-1-1--1-1-1--3-3-3--3-3-3-------|
E|---------------------------------------------------------------|

Starts at (3:25)
e|--------------------------------|
B|--8-------------8---------------|
G|--10b12---------10b12-----------|
D|--------------------------------|
A|--------------------------------|
E|--------------------------------|            
Submit corrections


        This Ticonderoga  lessons Hard to play? Try these video lessons and learn fast This Ticonderoga  lessons
        
↑ Back to top | Tablatures and chords for acoustic guitar and electric guitar, ukulele, drums are parodies/interpretations of the original songs. You may use it for private study, scholarship, research or language learning purposes only