» » »

Red Hot Chili Peppers - The Zephyr Song Tabs

Artists:  A B C D E F G H I J K L M N O P Q R S T U V W X Y Z # 

The Zephyr Song Tabs

(ver. 1) Click to play this song!
Red Hot Chili Peppers
 Rating:
4.3/5 (10 votes)

 The Zephyr Song lessons Tabs too difficult? Try these video lessons and learn fast
 
                [Intro] 0:06

     1   &  2              1  &   2          1  &  2           1  &  2 e &
e:----------------------------------------------------------------------------
B:----------------------------------------------------------------------------
G:----------12--------------------10---------------4-----------------5h7p5----
D:------10--------------------9-----------------5-----------------7-----------
A:--12--------------------10-----------------7-----------------8--------------
E:----------------------------------------------------------------------------

    1   &   2    3   &   4  e  &   1  &  2    3  &   4 e &  1  &  2    3  &  4 e &  1  &  2  &     &  4   & 
e:-----------------------------------------------------------------------------------------------------------
B:-------------------------------------------------------------------------------------------------8---------
G:----------9----10--12--10p9------------7----9--10--9p7----------4----5--7--5p4----------5--7/9------9\7-5--
D:------10--------------------10------9------------------9-----5-----------------5-----7---------------------
A:--12----------------------------10------------------------7-----------------------8------------------------
E:-----------------------------------------------------------------------------------------------------------





[Verse] 0:22

    1   &   2   &  3   a    &  1   &  2  &  3   &  4    1  &  2  &  3  a   &  1  &  2  &    3  &  4
e:---------------------------------------------------------------------------------------------------
B:---------------------------------------------------------------------------------------------------
G:----------9------12--10---9---------7-----10--9--7----------4-----7--5---4--------5--8/9--7--5--4-- 
D:------10-----10------------------9-----9-----------------5-----5---------------7-------------------
A:--12-------------------------10-----------------------7---------------------8----------------------
E:---------------------------------------------------------------------------------------------------


    1   &   2   &  3   a    &  1   &  2  &  3   &  4    1  &  2  &  3  a   &  1  &  2  &  3  &  4
e:-------------------------------------------------------------------------------------------------
B:---------------------10-------------------10-------------------------5---------------------------
G:----------9------12-------9---------7-----10--9--7----------4-----7------4--------5--------5----- 
D:------10-----10------------------9-----9-----------------5-----5---------------7--------7--------
A:--12-------------------------10-----------------------7---------------------8--------8--------8--
E:-------------------------------------------------------------------------------------------------


    1   &   2   &  3   a    &  1   &  2  &  3   &  4    1  &  2  &  3  a   &  1  &  2  &    3  &  
e:---------------------------------------------------------------------------------------------------
B:------------------------------------------10-------------------------5-----------------------------
G:----------9------12--10---9---------7-----10--9--7----------4-----7------4--------5--8/9--7--5----- 
D:------10-----10------------------9-----9-----------------5-----7---------------7-------------------
A:--12-------------------------10-----------------------7---------------------8----------------------
E:---------------------------------------------------------------------------------------------------


    1   &   2   &  3   a    &  1   &  2  &  3   &  4    1  &  2  &  3  a   &  1  &  2  &  3  &  
e:-------------------------------------------------------------------------------------------------
B:---------------------10-------------------10-------------------------5---------------------------
G:----------9------12-------9---------7-----10--9--7----------4-----7------4--------5--------5----- 
D:------10-----10------------------9-----9-----------------5-----5---------------7--------7--------
A:--12-------------------------10-----------------------7---------------------8--------8-----------
E:-------------------------------------------------------------------------------------------------





[Chorus] 0:57


    1   1   1    1   & a 1   1    1    1
e:----------3----5----------------3----5--
B:--7-------3----5---7-7-7--------3----5--
G:--7-------4----6---7-7-7--------4----6--
D:--7-------5----7---7-7-7--------5----7--
A:----------------------------------------
E:----------------------------------------
    D       G    A   D D D        G    A




[Verse 2] 1:13

    1   &   2   &  3   a    &  1   &  2  &  3   &  4    1  &  2  &  3  a   &  1  &  2  &    3  &  4
e:---------------------------------------------------------------------------------------------------
B:------------------------------------------10-------------------------------------------------------
G:----------9------12--10---9---------7-----10--9--7----------4-----7--5---4--------5--8/9--7--5--4-- 
D:------10-----10------------------9-----9-----------------5-----5---------------7-------------------
A:--12-------------------------10-----------------------7---------------------8----------------------
E:---------------------------------------------------------------------------------------------------


    1   &   2   &  3   a    &  1   &  2  &  3   &  4    1  &  2  &  3  a   &  1  &  2  &    3  &  
e:---------------------------------------------------------------------------------------------------
B:------------------------------------------10-------------------------5-----------------------------
G:----------9------12--10---9---------7-----10--9--7----------4-----7------4--------5--8/9--7--5----- 
D:------10-----10------------------9-----9-----------------5-----5---------------7-------------------
A:--12-------------------------10-----------------------7---------------------8----------------------
E:---------------------------------------------------------------------------------------------------


    1   &   2   &  3   a    &  1   &  2  &  3   &  4    1  &  2  &  3  a   &  1  &  2  &  3  &  
e:-----------------------------------------------------------------------------------------------
B:---------------------10-------------------10-------------------------5-------------------------
G:----------9------12-------9---------7-----10--9--7----------4-----7------4--------5--------5--- 
D:------10-----10------------------9-----9-----------------5-----5---------------7--------7------
A:--12-------------------------10-----------------------7---------------------8--------8---------
E:-----------------------------------------------------------------------------------------------




[Chorus 2] 1:40    


    1   1   1    1   & a 1   1    1    1
e:----------3----5----------------3----5--
B:--7-------3----5---7-7-7--------3----5--
G:--7-------4----6---7-7-7--------4----6--
D:--7-------5----7---7-7-7--------5----7--
A:----------------------------------------
E:----------------------------------------
    D       G    A   D D D        G    A

(1:56-2:03 a nice reference if you're unfamiliar with the fingering for these chord shapes)


[Post Chorus] 1:56

    1    2  &  3  &  4  &  1  &  2  &  3  &  4  &  1    2  &  3  &  4  &  1    2  &  3  &  4  
e:-------------------------------------------------3----3--3-----3--3-----5----5-----3-----5--
B:--7----7--7-----7--7--7-----7--7--7-----7--7-----3----3--3-----3--3-----5----5-----3-----5--
G:--7----7--7-----7--7--7-----7--7--7-----7--7-----4----4--4-----4--4-----6----6-----4-----6--
D:--7----7--7-----7--7--7-----7--7--7-----7--7-----5----5--5-----5--5-----7----7-----5-----7--
A:--------------------------------------------------------------------------------------------
E:--------------------------------------------------------------------------------------------
    D                                              G                      A          G     A

    1    2  &  3  &  4  &  1  &  2  &  3  &  4  &  1    2  &  3  &  4  &  1  &  2  &
e:-------------------------------------------------3----3--3-----3--3-----5--5--5--5--
B:--7----7--7-----7--7--7-----7--7--7-----7--7-----3----3--3-----3--3-----5--5--5--5--
G:--7----7--7-----7--7--7-----7--7--7-----7--7-----4----4--4-----4--4-----6--6--6--6--
D:--7----7--7-----7--7--7-----7--7--7-----7--7-----5----5--5-----5--5-----7--7--7--7--
A:------------------------------------------------------------------------------------
E:------------------------------------------------------------------------------------
    D                                              G                      A


(After the last strum of A, continue strumming eighth notes but mute all strings while moving your fingers up 
the neck for the solo)


[Solo 1]  2:10


       &  4   &   1                  4 e  &        3        1               &    4   &  1               
e:-----x--x----------------------------20-20b------r---------------------------------------
B:-----x--20--20--20b--------------------------------------20b-------------20r--17--20--b--
G:-----x--x--------------------------------------------------------------------------------
D:-----------------------------------------------------------------------------------------
A:-----------------------------------------------------------------------------------------
E:-----------------------------------------------------------------------------------------


    &    4  &   1    2  &     &     &     &   &     &  4   &   1  & A 2  & A      1  & A 2    3  &
e:----------------------------------20b---r---20b---r--19--19--20p0-0-20p0-0-...--20p0-0-22b-----22b--
B:--b20--r--17--20b-----b20---b20--------------------------------------------...---------20b-----20b--
G:----------------------------------------------------------------------------------------------------
D:----------------------------------------------------------------------------------------------------
A:----------------------------------------------------------------------------------------------------
E:----------------------------------------------------------------------------------------------------





[Bridge] 2:28

    1  & a 2  &  3 e &  4    1    2  &    &  4    1    2  &  3 e &  4  1 e &  2  &  3 e &  4
e:--------------------------------------------------------------------------------------------
B:--5--5-5-5--5--5-5-5--5----3----3--3----3--3----0----0--0--0-0-0--0--1-1-1--1--1--1-1-1--1--
G:--5--5-5-5--5--5-5-5--5----4----4--4----4--4----0----0--0--0-0-0--0--2-2-2--2--2--2-2-2--2--
D:--7--7-7-7--7--7-7-7--7----5----5--5----5--5----2----2--2--2-2-2--2--3-3-3--3--3--3-3-3--3--
A:--7--7-7-7--7--7-7-7--7----5----5--5----5--5----2----2--2--2-2-2--2--3-3-3--3--3--3-3-3--3--
E:--------------------------------------------------------------------------------------------
    Am                       G                    Em                   F

    & a 1    2  &  3  &  4    1  & a 2  &    &  4  1  & a 2  &  3  &  4 & a 1           4
e:-----------------------------------------------------------------------------------------
B:--5-5-5----5--5--5--5--5----3--3-3-3--3----3--3--0--0-0-0--0--0--0--0-1-1-1-----------1--
G:--5-5-5----5--5--5--5--5----4--4-4-4--4----4--4--0--0-0-0--0--0--0--0-2-2-2-----------2--
D:--7-7-7----7--7--7--7--7----5--5-5-5--5----5--5--2--2-2-2--2--2--2--2-3-3-3-----------3--
A:--7-7-7----7--7--7--7--7----5--5-5-5--5----5--5--2--2-2-2--2--2--2--2-3-3-3-----------3--
E:-----------------------------------------------------------------------------------------
    Am                        G                    Em                   F






[Chorus 3] 2:45

    1    2  &    &  4  &    &  2     3  &  4 & a 1    2  &    &  4  &  1    2  &    3  &  4  & a   
e:--2----2--2----2--2--2----2--2-----2--2--2------------------------------------------------------
B:--3----3--3----3--3--3----3--3-----3--3--3-3-3-3----3--3----3--3--3--2----2--2----2--2--2--2-2--
G:--2----2--2----2--2--2----2--2-----2--2--2-0-0-0----0--0----0--0--0--2----2--2----2--2--2--3-3--  x2
D:--0----0--0----0--0--0----0--0-----0--0--0-0-0-0----0--0----0--0--0--2----2--2----2--2--2--2-2--
A:-------------------------------------------2-2-2----2--2----2--2--2-----------------------------
E:-------------------------------------------3-3-3----3--3----3--3--3-----------------------------
    D                                        G                         A                     




[Post Chorus 2] 3:01

    1    2  &     &  4  &     &  2  &     &  4  &  1    2  &  3  &  4  &  1    2  &  3     4         
e:--2----2--2-----2--2--2-----2--2--2-----2--2--2------------------------------------------------
B:--3----3--3-----3--3--3-----3--3--3-----3--3--3--3----3--3-----3--3--3--2----2--2--3-----2-----
G:--2----2--2-----2--2--2-----2--2--2-----2--2--2--0----0--0-----0--0--0--2----2--2--0-----2-----
D:--0----0--0-----0--0--0-----0--0--0-----0--0--0--0----0--0-----0--0--0--2----2--2--0-----2-----
A:-------------------------------------------------2----2--2-----2--2--2-------------2-----------
E:-------------------------------------------------3----3--3-----3--3--3-------------3-----------
    D                                              G                      A                   

    1    2  &     &  4  &     &  2  &     &  4  &  1    2  &     &  4  &  1               
e:--2----2--2-----2--2--2-----2--2--2-----2--2--2----------------------------
B:--3----3--3-----3--3--3-----3--3--3-----3--3--3--3----3--3-----3--3--3--2--
G:--2----2--2-----2--2--2-----2--2--2-----2--2--2--0----0--0-----0--0--0--2--
D:--0----0--0-----0--0--0-----0--0--0-----0--0--0--0----0--0-----0--0--0--2--
A:-------------------------------------------------2----2--2-----2--2--2-----
E:-------------------------------------------------3----3--3-----3--3--3-----
    D                                              G                      A                   
 

After the last strum of A (1st beat of the measure), 
quickly reposition your index finger on the 14th fret for the second solo which starts on the 3rd beat 
of the same measure.  


[Solo 2] 3:16

    3     4    1     2   &     &   4   &       2  &     &     &   1     2  &     
e:--14b---r---------------------------------------15----14----15--15-------15--------
B:-------------15----15--15----15--15--15--------------------------------------------
G:-----------------------------------------------------------------------------------
D:-----------------------------------------------------------------------------------
A:-----------------------------------------------------------------------------------
E:-----------------------------------------------------------------------------------

    1         3  &  4   &    1  &  2   &
e:----------------------14b-----r----------
B:--15b----------r--15-------------15--15--
G:-----------------------------------------
D:-----------------------------------------
A:-----------------------------------------
E:-----------------------------------------


   1  &     &     &     &   1            4  &  a  1  &  a  2  &    &    &   1    2  &   3     4   &     
e:----17----15----14----15--15--------------15h17----15h17----b----r----14--b----r--14--14----14--14--
B:----------------------------------------------------------------------------------------------------
G:----------------------------------------------------------------------------------------------------
D:----------------------------------------------------------------------------------------------------
A:----------------------------------------------------------------------------------------------------
E:----------------------------------------------------------------------------------------------------


    1  &     &     &   4   &   1     2   &     &   4     1     2  &     &    4    1    2  &       &   4   &
e:-----17----15----14--14--15--15----15--15----15--15-------------17--------------14------14b-----r-------17--
B:-------------------------------------------------------15b(hold)------b15--r------------------------15------
G:------------------------------------------------------------------------------------------------------------
D:------------------------------------------------------------------------------------------------------------
A:------------------------------------------------------------------------------------------------------------
E:------------------------------------------------------------------------------------------------------------


    1  &   2   &      &  4     1     2   &     &   4   &    1     2   &  A  3   &   4  e  & a  1
e:-----15--14--14b----r------------------------------------------------------------------------------
B:-----------------------15--------------15---------------------------14h15p14------14h15p14---14b---
G:-----------------------------12----12--------12--12--/14--14----14------------14----------14-13b---
D:---------------------------------------------------------------------------------------------------
A:---------------------------------------------------------------------------------------------------
E:---------------------------------------------------------------------------------------------------
            
Submit corrections


        The Zephyr Song lessons Hard to play? Try these video lessons and learn fast The Zephyr Song lessons
        
↑ Back to top | Tablatures and chords for acoustic guitar and electric guitar, ukulele, drums are parodies/interpretations of the original songs. You may use it for private study, scholarship, research or language learning purposes only