» » »

Red Hot Chili Peppers - The Longest Wave Tabs

Artists:  A B C D E F G H I J K L M N O P Q R S T U V W X Y Z # 

The Longest Wave Tabs

(ver. 1) Click to play this song!
Red Hot Chili Peppers
 Rating:
4.2/5 (17 votes)

 The Longest Wave  lessons Tabs too difficult? Try these video lessons and learn fast
 
                [Intro]


e|-----------3-----------5h6----------------------5------------------------|
B|-------3h4---4-------------8--------------6------------------------------|
G|---------------3-----7-------7--------7-----7-------8--------8h10p8------|
D|-----5----------5--5-----------5--------8-----8-----8---------------10\8-|
A|---6-----------------------------5----------------6-----8/10-------------|
E|-------------------------------------6-----------------------------------|

e|-----------------------------------------11-------------11--10----------|
B|----------------------------11-----------13---13-----13--------11-------|
G|------8p7--8p7-----------------12--------12-------12--------------10----|
D|----8-8--------8/10-------12------12------------------------------------|
A|---------------------8/10-----------------------------------------------|
E|--6-----------------------------------------------------------------10/0|


[Verse]

e|------------------------------------------------------------------------|
B|-11-------9---------11--------9--------11--------9----------------------|
G|---12------10---------12-------10--------12-------10------15-----14-----|
D|------------------------------------------------------------17-----15---|
A|------------------------------------------------------------------------|
E|-----11/9------9/11------11/9-----9/11-------11/9----9/15---------------|

e|------------------------------------------------------------------------|
B|-11-------9--------11------11h13-----------11--------9------------------|
G|---12------10--------12-12-------13/11-------12-------10--15----14------|
D|------------------------------------------------------------------15----|
A|------------------------------------------------------------17----------|
E|-----11/9----9/11----------------------9/11-----11/9--------------------|

e|------------------------------------------------------------------------|
B|---10--------6-6---11-------9--------11---13-----9--------11--------9---|
G|-10----------7-7-----12------10-8/12---12---------10--------12-------10-|
D|--------13---7-7--------------------------------------------------------|
A|--------13--------------------------------------------------------------|
E|--------11-------------11/9--------------------------9/11------11/9-----|

e|------------------------------------------------------------------------|
B|-----11--11h13--------------11------9----------------------------6-6----|
G|-------12------12/10--8h10----12-----10---15---14------10--------7-7----|
D|-------------------------------------------------15--10-----13---7-7----|
A|--------------------------------------------17--------------13----------|
E|-9/11---------------------------11/9------------------------11----------|


[Pre-Chorus]

e|------------------------------------------------------------------------|
B|-8----------6----------------------6-------8-----6--6--6--6-------------|
G|-8----------7-------8---10--10/12--7-------8-----7--7--7--7-------------|
D|-10---------8-------10-------------8-------10----8--8--8--8-------------|
A|-10---------8-------10-------------8-------10----8--8--8--8-------------|
E|-8----------6-------8--------------6-------8-----6--6--6--6-------------|


[Chorus]

e|-------------------------------------------------------------------------------|
B|-------------------------------------------------------------------------------|
G|--15b17--15--------------------------------------------------------------------|
D|------------15b17--13---13h15-(15)--------------------------------13-----------|
A|-----------------------------------13-13h15-----------11--13--15-----13b15r13--|
E|-----------------------------------------------11--13--------------------------|

e|-------------------------------------------------------------------------------|
B|-------------------------------------------------------------------------------|
G|----------------------------------------15b17--15------------------------------|
D|---------------------------------------------------15b17--13--13h15------------|
A|-13/15--13/11---13p11-----------------------------------------------13--15-----|
E|----------------------13--11b12------------------------------------------------|

e|-------------------------------------------------------------------------------|
B|-------------------------------------------------------------------------------|
G|-------------------------------------------------------------------------------|
D|---------------------13--------------------------------------------------------|
A|---------11--13--15-----13b15r13---13/15--13/11--13p11-------------------------|
E|-11--13------------------------------------------------13--11b12---------------|


[Verse]


e|------------------------------------------------------------------------------|
B|-11-------9---------11---------------------------11--11h13--------------------|
G|---12------10---------12--12/10--8/10---10---------12----------------15---13--|
D|-----------------------------------------------------------12/10------------14|
A|-----------------------------------------------------------------------17-----|
E|-----11/9------9/11-------------------9-----9/11----------------9/15----------|

e|------------------------------------------------------------------------------|
B|----10------6-6-----11--------9-------11---13---9---(9)---11------9-------11--|
G|-10---------7-7-------12-------1o-------12-------10---------12-----10-------12|
D|--------13--7-7---------------------------------------------------------------|
A|--------13--------------------------------------------------------------------|
E|--------11---------------11/9-----9/11------------------------11/9----9/11----|

e|------------------------------------------------------------------------------|
B|-11h13p11---------------11-----13------------15----------------10-----6-6-----|
G|----------12/10 -10--8----12------12/10---------------14-----10-------7-7-----|
D|------------------------------------------------17------15--------13--7-7-----|
A|------------------------------------------------------------------13----------|
E|-----------------------------11---------9/15----------------------11----------|


[Pre-Chorus]

e|------------------------------------------------------------------------|
B|-8----------6----------------------6-------8-----6--6--6--6-------------|
G|-8----------7-------8---10--10/12--7-------8-----7--7--7--7-------------|
D|-10---------8----------------------8-------10----8--8--8--8-------------|
A|-10---------8----------------------8-------10----8--8--8--8-------------|
E|-8----------6----------------------6-------8-----6--6--6--6-------------|


[Chorus]

e|-------------------------------------------------------------------------------|
B|-------------------------------------------------------------------------------|
G|--15b17--15--------------------------------------------------------------------|
D|------------15b17--13---13h15-------------------------------------13-----------|
A|-----------------------------------13-13h15-----------11--13--15-----13b15r13--|
E|-----------------------------------------------11--13--------------------------|

e|-------------------------------------------------------------------------------|
B|-------------------------------------------------------------------------------|
G|----------------------------------------15b17--15------------------------------|
D|---------------------------------------------------15b17--13--13h15------------|
A|-13/15--13/11---13p11-----------------------------------------------13--15-----|
E|----------------------13--11b12------------------------------------------------|

e|-------------------------------------------------------------------------------|
B|-------------------------------------------------------------------------------|
G|-------------------------------------------------------------------------------|
D|---------------------13--------------------------------------------------------|
A|---------11--13--15-----13b15r13---13/15--13/11--13p11-------------------------|
E|-11--13------------------------------------------------13--11b12---------------|

e|-------------------------------------------------------------------------------|
B|-------------------------------------------------------------------------------|
G|-------------------------------------------------------------------------------|
D|--------------------------------------------------------13---------------------|
A|-------------------------------------------11--13--15----13b15r13-13/15-13/11--|
E|-11/9---9---8--8b9--6--6h8--6s4--4--11--13-------------------------------------|
x
e|-------------------------------------------------------------------------------|
B|-------------------------------------------------------------------------------|
G|-------------------------------------------------------------------------------|
D|----11-13b15r13----------------------------------------------------------------|
A|-13----------------------------------------------------------------------------|
E|-------------------------------------------------------------------------------|


[Outro]

e|-----------3-----------5h6----------------------5------------------------|
B|-------3h4---4-------------8--------------6------------------------------|
G|---------------3-----7-------7--------7-----7-------8--------8h10p8------|
D|-----5----------5--5-----------5--------8-----8-----8---------------10\8-|
A|---6-----------------------------5----------------6-----8/10-------------|
E|-------------------------------------6-----------------------------------|

e|-----------------------------------------11-------------11--10-----------|
B|----------------------------11-----------13---13-----13--------11--------|
G|------8p7--8p7-----------------12--------12-------12---------------------|
D|----8-8--------8/10-------12------12-------------------------------------|
A|---------------------8/10------------------------------------------------|
E|--6----------------------------------------------------------------------|
            
Submit corrections


        The Longest Wave  lessons Hard to play? Try these video lessons and learn fast The Longest Wave  lessons
        
↑ Back to top | Tablatures and chords for acoustic guitar and electric guitar, ukulele, drums are parodies/interpretations of the original songs. You may use it for private study, scholarship, research or language learning purposes only