» » »

Red Hot Chili Peppers - The Hunter Tabs

Artists:  A B C D E F G H I J K L M N O P Q R S T U V W X Y Z # 

The Hunter Tabs

(ver. 1) Click to play this song!
Red Hot Chili Peppers
 Rating:
4.3/5 (18 votes)

 The Hunter  lessons Tabs too difficult? Try these video lessons and learn fast
 
                INTRO                                                                              |(leading into verse 1)
 |-| x  -  - | x  -  - | x  -  - | x  -  - | x  -  - | x  -  - | x  -  - | x  -  - | x  -  - |
e|1~---------------------------------------13~---------------------------------18~\1/13------|
B|-------------------------------------------------------------------------------------------|
G|-------------------------------------------------------------------------------------------|
D|-------------------------------------------------------------------------------------------|
A|-------------------------------------------------------------------------------------------|
E|-------------------------------------------------------------------------------------------|

VERSE A
|:|-| x  -  - | x  -  - | x  -  - | x  -  - | x  -  - | x  -  - | x  -  - | x  -  - | x  -  - |
 e|1/13~-----------------------------------1/13~----------------------------------------------|
 B|-------------------------------------------------------------------------------------------|
 G|-------------------------------------------------------------------------------------------|
 D|-------------------------------------------------------------------------------------------|
 A|-------------------------------------------------------------------------------------------|
 E|-------------------------------------------------------------------------------------------|

BRIDGE
  |-| x  -  - | x  -  - | x  -  - | x  -  - | x  -  - | x  -  - | x  -  - | x  -  - | x  -  - |
 e|--14----13--11-----8-/10------------------14-----13--11----8---6---------------------------|
 B|-------------------------------------------------------------------------------------------|
 G|-------------------------------------------------------------------------------------------|
 D|-------------------------------------------------------------------------------------------|
 A|-------------------------------------------------------------------------------------------|
 E|-------------------------------------------------------------------------------------------|
VERSE B
   -| x  -  - | x  -  - | x  -  - | x  -  - |
 e|1/13~------------------------------------|
 B|-----------------------------------------|
 G|-----------------------------------------|
 D|-----------------------------------------|
 A|-----------------------------------------|
 E|-----------------------------------------|
 
BRIDGE
  |-| x  -  - | x  -  - | x  -  - | x  -  - | x  -  - | x  -  - | x  -  - | x  -  - | x  -  - |
 e|--14----13--11-----9-/11------------------14-----13--11----9 ---6--------------------------|
 B|-------------------------------------------------------------------------------------------|
 G|-------------------------------------------------------------------------------------------|
 D|-------------------------------------------------------------------------------------------|
 A|-------------------------------------------------------------------------------------------|
 E|-------------------------------------------------------------------------------------------|

CHORUS
  |-| x  -  - | x  -  - | x  -  - | x  -  - | x  -  - | x  -  - | x  -  - | x  -  - | x  -  - |
 e|1/13~-------h16p13-11-13~---------------1/13~-------h16p13-11-13~----------------1/13~-----|
 B|-------------------------------------------------------------------------------------------|
 G|-------------------------------------------------------------------------------------------|
 D|-------------------------------------------------------------------------------------------|
 A|-------------------------------------------------------------------------------------------|
 E|-------------------------------------------------------------------------------------------|

  |-| x  -  - | x  -  - | x  -  - | x  -  - | x  -  - | x  -  - | x  -  - |:|
 e|--h16p13-11-13~-----------9--8---9~-------11-(13)----8~----------------|
 B|-----------------------------------------------------------------------|
 G|-----------------------------------------------------------------------|
 D|-----------------------------------------------------------------------|
 A|-----------------------------------------------------------------------|
 E|-----------------------------------------------------------------------|

( |:------:| = Play passage(s) between : once more)

After second playthrough:
  |-| x  -  - | x  -  - | x  -  - | x  -  - | x  -  - | x  -  - | x  -  - | x  -  - | x  -  - |
 e|--18--------------------------------------18-----------------------------------1~!~--------|
 B|-------------------------------------------------------------------------------------------|
 G|-------------------------------------------------------------------------------------------|
 D|-------------------------------------------------------------------------------------------|
 A|-------------------------------------------------------------------------------------------|
 E|-------------------------------------------------------------------------------------------|
 
(13~!~ = press on whammy bar to make it sound like the free e string)

Wait for Verse A (because it's the same length)

BRIDGE
  |-| x  -  - | x  -  - | x  -  - | x  -  - | x  -  - | x  -  - | x  -  - | x  -  - | x  -  - |
 e|--14----13--11-----9-/11------------------14-----13--11----9 ---6--------------------------|
 B|-------------------------------------------------------------------------------------------|
 G|-------------------------------------------------------------------------------------------|
 D|-------------------------------------------------------------------------------------------|
 A|-------------------------------------------------------------------------------------------|
 E|-------------------------------------------------------------------------------------------|

CHORUS
  |-| x  -  - | x  -  - | x  -  - | x  -  - | x  -  - | x  -  - | x  -  - | x  -  - | x  -  - |
 e|1/13~-------h16p13-11-13~---------------1/13~-------h16p13-11-13~----------------1/13~-----|
 B|-------------------------------------------------------------------------------------------|
 G|-------------------------------------------------------------------------------------------|
 D|-------------------------------------------------------------------------------------------|
 A|-------------------------------------------------------------------------------------------|
 E|-------------------------------------------------------------------------------------------|

  |-| x  -  - | x  -  - | x  -  - | x  -  - | x  -  - | x  -  - | x  -  - |
 e|--h16p13-11-13~-----------9--8---9~-------11-(13)----8~----------------| 
 B|-----------------------------------------------------------------------|
 G|-----------------------------------------------------------------------|
 D|-----------------------------------------------------------------------|
 A|-----------------------------------------------------------------------|
 E|-----------------------------------------------------------------------|            
Submit corrections


        The Hunter  lessons Hard to play? Try these video lessons and learn fast The Hunter  lessons
        
↑ Back to top | Tablatures and chords for acoustic guitar and electric guitar, ukulele, drums are parodies/interpretations of the original songs. You may use it for private study, scholarship, research or language learning purposes only