» » »

Red Hot Chili Peppers - Tearjecker Tabs

Artists:  A B C D E F G H I J K L M N O P Q R S T U V W X Y Z # 

Tearjecker Tabs

(ver. 1) Click to play this song!
Red Hot Chili Peppers
 Rating:
4/5 (4 votes)
    Tearjecker lessons Tabs too difficult? Try these video lessons and learn fast
                E|---------------------------------------------------------------------------
B|---------------------------------------------------------------------------
G|-9-9-9/11-11-11-11/12-12-12-12/11-11-11-11/12-12-14-14-14-14/12-12-12-12/11
D|---------------------------------------------------------------------------
A|---------------------------------------------------------------------------
E|---------------------------------------------------------------------------

E|---------------------------------------------------------------------------
B|-11-11-11/9-9-9/7-7-6-6/4-6-4-4-4-6-6-9h11p9-7---7-------------------------
G|-----------------------------------------------9---7-5-5-7-5-4-------------
D|---------------------------------------------------------------5-(7)-(5)---
A|---------------------------------------------------------------------------
E|---------------------------------------------------------------------------

E|------------------------10-------------------------------------------------
B|-10-8----8---------8-10----------------------------------------------------
G|------10---10-7-10---------------------------------------------------------
D|---------------------------------------------------------------------------
A|---------------------------------------------------------------------------
E|---------------------------------------------------------------------------
            
Submit corrections

↑ Back to top | Tablatures and chords for acoustic guitar and electric guitar, ukulele, drums are parodies/interpretations of the original songs. You may use it for private study, scholarship, research or language learning purposes only